Cifra Club

Bargain Basement Howard Hughes

Jerry Cantrell

Cifrado: Principal (guitarra y guitarra eléctrica)
tono: G
Bargain Basement
Degradation Trip

Tabbed by: Ryan
Email: W*

Tuning: Drop D, E Flat Tuning 

Intro

eb|---------------------------|
Bb|---------------------------|
Gb|--6/7----------------------|
Db|--6/7--555555--------------|
Ab|--4/5--555555-0------------|
Eb|-------555555-0------------|

eb|------|-----------------------------------------------------|
Bb|------|-----------------------------------------------------|
Gb|------|-----------------------------------------------------|
Db|-5----|-----------------------------------------------------|
Ab|-5--5-|----0--0---/3---6--5--3--0--/3--6--5--0--0-----------|
Eb|-3--5-|----0--0---/3---6--5--3--0--/3--6--5--0--0-----------|


eb||:------------------------------------------------------------||
Bb||:------------------------------------------------------------||
F#||:------------------------------------------------------------||
Db||:------------------------------------------------------------||
Ab||:---0-3h5--0-----0-3h5-6-------------------------------------||
Eb||:---0-3h5--0-----0-3h5-6-------------------------------------||




| /  slide up
| \  slide down
| h  hammer-on
| p  pull-off
| ~  vibrato
| +  harmonic
| x  Mute note
===============================================================================
00:00 / 00:00
Otros videos de esta canción
Repetir
Otros videos de esta canción
Composición de Jerry Cantrell
24 vistas
    • ½ Tono
    • A
    • Bb
    • B
    • C
    • Db
    • D
    • Eb
    • E
    • F
    • F#
    • G
    • Ab
  • Agregar a la lista

    0 comentarios

    Ver todos los comentarios

    ¿Lograste tocar?

    0 Tocaron 0 Aún no

    ¡Graba un video tocando Bargain Basement Howard Hughes y envíanoslo!

    00:00 / 00:00
    OK