Cifra Club

Aqui

Capital Inicial

Cifrado: Principal (guitarra y guitarra eléctrica)
tono: E
[Intro] E  E4  E  E4
        E  F#m  A  E  E4

E|------12ha-------12ha------------------------|
B|-12ha-----------------12ha-------------------|
G|---------------------------------------------|
D|---------------------------------------------|
A|---------------------------------------------|
E|---------------------------------------------|

[Primeira Parte]

E                              F#m
  Às vezes acho que eu fiquei louco
A                               E
  Me dando conselhos até ficar rouco
E                               F#m
  Às vezes acho que eu perdi a memória
A                              E
  Contando de novo a mesma história

[Refrão]

  F#m                   E
Aqui onde as horas não passam
  F#m                   E
Aqui onde o Sol não me vê
  F#m                G#m
Aqui onde eu não moro
 A                E     B
Não existo sem você

[Segunda Parte]

E                                   F#m
  Me olho no espelho e me vejo do avesso
A                                E
  O mesmo rosto que eu não reconheço
E                            F#m
  O rádio ligado, chuva e calor
A                                  E
  As gotas me ferem mas não sinto dor

[Refrão]

  F#m                   E
Aqui onde as horas não passam
  F#m                   E
Aqui onde o Sol não me vê
  F#m               G#m
Aqui onde eu não moro
 A               E     B
Não existo sem você

[Solo] A  E  A  E  C#m  F#m  C#m  F#m  C#m  F#m  B

E|---------------------------------------------|
B|-7/9--7--5---5---7/9--7--5---5---------------|
G|-----------6---------------6-----------------|
D|---------------------------------------------|
A|---------------------------------------------|
E|---------------------------------------------|

E|---7/9--7--4-5-4---4-------------------------|
B|-----------------5---------------------------|
G|---------------------------------------------|
D|---------------------------------------------|
A|---------------------------------------------|
E|---------------------------------------------|

E|--7/9--7--4-5-4------------------------------|
B|----------------5------5--7--8-7-8-----------|
G|------------------4--6--------------9-6-5/6--|
D|---------------------------------------------|
A|---------------------------------------------|
E|---------------------------------------------|

[Refrão]

  F#m                   E
Aqui onde as horas não passam
  F#m                   E
Aqui onde o Sol não me vê
  F#m               G#m
Aqui onde eu não moro
 A               E     B
Não existo sem você

[Final] E  E4  E  E4 
Composición de Dinho Ouro Preto
275 vistas
  • Simplificar cifrado
    • ½ Tono
    • A
    • Bb
    • B
    • C
    • Db
    • D
    • Eb
    • E
    • F
    • F#
    • G
    • Ab
  • Agregar a la lista

    0 comentarios

    Ver todos los comentarios
    00:00 / 00:00
    Outros vídeos desta música
    Repetir Calidad Automático
    Outros vídeos desta música
    00:00 / 00:00
    Automático
    OK