Cifra Club

Cai a Noite

Capital Inicial

Cifrado: Principal (guitarra y guitarra eléctrica)
Já pensou em usar uma coleção de roupas do Cifra Club? Responda as perguntas abaixo e nos ajude nessa missão! →
tono: D
[Intro] C9  G/B  Gm/Bb  D  D9  D
        C9  G/B  Gm/Bb  
        D  D4  D  D9  D
        D  D4  D  D9  D

   C9             G/B            Gm/Bb
E|-------3--------------3--------------3----|
B|-----3---3----------3---3----------3---3--|
G|---0-------0------0-------0------0-------0|
D|------------------------------------------|
A|-3-----------3--2-----------2--1----------|
E|------------------------------------------|

   D       D9  D
E|-------2-0--------------------------------|
B|-----3-----3---3--------------------------|
G|---2---------2----------------------------|
D|-0----------------------------------------|
A|------------------------------------------|
E|------------------------------------------|

   C9             G/B            Gm/Bb
E|-------3--------------3--------------3----|
B|-----3---3----------3---3----------3---3--|
G|---0-------0------0-------0------0-------0|
D|------------------------------------------|
A|-3-----------3--2-----------2--1----------|
E|------------------------------------------|

   D    D4 D  D9 D     D    D4 D  D9 D   
E|-2-2--3--2--0--2-2---2-2--3--2--0--2-2----|
B|-3-3--3--3--3--3-3---3-3--3--3--3--3-3----|
G|-2-2--2--2--2--2-2---2-2--2--2--2--2-2----|
D|-0-0--0--0--0--0-0---0-0--0--0--0--0-0----|
A|------------------------------------------|
E|------------------------------------------|

[Primeira Parte]

D                   D4
  Cai a noite na cidade
 D          D9
Vinda de lugar nenhum
D                D4
  E o dia vai embora
D           D9
Indo pra lugar algum
D             D4    D           D9
  Não sentia fome, não sentia frio
D              D4           D       D9
  Sentado num canto de um quarto vazio

[Refrão]

C9                 G/B
   Quando a chuva cai
Gm/Bb                  D   D4 D
      Nas noites mais solitárias
C9                G/B   Gm/Bb             
   Lembre-se que sempre      

( D  D4  D  D9  D ) 
( D  D4  D  D9  D )     

[Segunda Parte]

D            D4
  Sombras e pensamentos
       D       D9
De um sonho só esperança
D                D4
  Nas paredes ecoavam
D            D9
O silêncio e a lembrança
D               D4
  Entre ruas desertas
       D           D9
Ele está só de passagem
D             D4
  Da vertigem e tontura
    D                  D9
Surgiam todo tipo de imagens

[Refrão]

C9                 G/B
   Quando a chuva cai
Gm/Bb                  D   D4 D
      Nas noites mais solitárias
C9                G/B   Gm/Bb           D  D4  D   
   Lembre-se que sempre      estarei aqui

C9                 G/B
   Quando a chuva cai
Gm/Bb                  D   D4 D
      Nas noites mais solitárias
C9                G/B   Gm/Bb           
   Lembre-se que sempre 

( D  D4  D  D9  D ) 
( D  D4  D  D9  D ) 

[Ponte]

Dm
  Se virou e alcançou o céu

E a última estrela

Nada deixava passar

Tudo lembrava ela

[Refrão]

C9                 G/B
   Quando a chuva cai
Gm/Bb                  D   D4 D
      Nas noites mais solitárias
C9                G/B   Gm/Bb           D  D4  D   
   Lembre-se que sempre      estarei aqui

C9                 G/B
   Quando a chuva cai
Gm/Bb                  D   D4 D
      Nas noites mais solitárias
C9                G/B   Gm/Bb  D  D4  D           
   Lembre-se que sempre 

[Final] C9  G/B  Gm/Bb  D  D9  D
        C9  G/B  Gm/Bb  D 

   C9             G/B            Gm/Bb
E|-------3--------------3--------------3----|
B|-----3---3----------3---3----------3---3--|
G|---0-------0------0-------0------0-------0|
D|------------------------------------------|
A|-3-----------3--2-----------2--1----------|
E|------------------------------------------|

   D       D9  D
E|-------2-0--------------------------------|
B|-----3-----3---3--------------------------|
G|---2---------2----------------------------|
D|-0----------------------------------------|
A|------------------------------------------|
E|------------------------------------------|

   C9             G/B            Gm/Bb
E|-------3--------------3--------------3----|
B|-----3---3----------3---3----------3---3--|
G|---0-------0------0-------0------0-------0|
D|------------------------------------------|
A|-3-----------3--2-----------2--1----------|
E|------------------------------------------|
Composición de Loro Jones / Marcelo Rossi
2.317 vistas
    • ½ Tono
    • A
    • Bb
    • B
    • C
    • Db
    • D
    • Eb
    • E
    • F
    • F#
    • G
    • Ab
  • Agregar a la lista

    0 comentarios

    Ver todos los comentarios
    00:00 / 00:00
    Outros vídeos desta música
    Repetir Calidad Automático
    Outros vídeos desta música
    00:00 / 00:00
    Automático
    Capítulos
    • Início
    • Acordes da Introdução
    • Tocando a Introdução
    • Explicando a Introdução
    • Tocando Primeira Parte
    • Tocando a Primeira Parte Devagar
    • Explicando o Ritmo da Primeira Parte
    • Tocando Refrão
    • Acorde Última Parte
    • Tocando Última Parte
    • Tocando Ritmo da Última Parte Devagar
    • Explicando Ritmo da Última Parte
    • Encerramento
    OK