Cifra Club

Como Devia Estar

Capital Inicial

Cifrado: Principal (guitarra y guitarra eléctrica)
tono: E
[Intro] Em  F4+

E|------------------------------------------------------|
B|------------------------------------------------------|
G|------------------------------------0-----------------|
D|-2-2-2-2-2-2-2-2-2-2--3-3-3-3-3-0-2---2-0-------------|
A|-2-2-2-2-2-2-2-2-2-2--3-3-3-3-3-----------2-0---------|
E|-0-0-0-0-0-0-0-0-0-0--1-1-1-1-1-----------------------|

[Primeira Parte]

 F#m            A    B      E
Folhas verdes caem no jardim
 F#m           A    B    E
Coisas que começam pelo fim
 F#m              B4  B
Como chuvas de verão
 F#m                 B4  B
Caindo em outra estação

Aonde quer que eu vá 

[Refrão]
        
 A C#m A   E  F#m  A              E 
Haha, um dia tudo volta para seu lugar
A C#m A   E   F#m   A             E       
Haha, um dia vai ficar como devia estar
 F#m   A    B            E  
Vai ficar, como devia estar

( Em  F4+ )

E|------------------------------------------------------|
B|------------------------------------------------------|
G|------------------------------------0-----------------|
D|-2-2-2-2-2-2-2-2-2-2--3-3-3-3-3-0-2---2-0-------------|
A|-2-2-2-2-2-2-2-2-2-2--3-3-3-3-3-----------2-0---------|
E|-0-0-0-0-0-0-0-0-0-0--1-1-1-1-1-----------------------|

[Segunda Parte]

  F#m               A  B  E
Prédios derretendo sob o céu
 F#m          A     B     E
Sonhos construidos com papel
 F#m          B4  B
Carros vem e vão
 F#m               B4  B          
Correndo em minha direção

Aonde quer que eu vá 

[Refrão]
        
 A C#m A   E  F#m  A              E 
Haha, um dia tudo volta para seu lugar
A C#m A   E   F#m   A             E       
Haha, um dia vai ficar como devia estar
 F#m   A    B            E  
Vai ficar, como devia estar

[Solo]

E|-----------------------------------------------------|
B|-----------------------------------------------------|
G|-----------------2p1--------------------------2p1-4--|
D|------2-2---2--------2--------------2-2---2----------|
A|--2h4-----4---4--------2h4-2----2h4-----4---4--------|
E|-----------------------------------------------------|

E|-----------------------------------------------------|
B|-----------------------------------------------------|
G|--9-9-8-8-6-6-4-4-2-2-1-1-0-1------------------------|
D|--------------------------------4--------------------|
A|-----------------------------------------------------|
E|-----------------------------------------------------|

[Segunda Parte]

 F#m              B4  B
Como chuvas de verão
 F#m                 B4  B
Caindo em outra estação

Aonde quer que eu vá 

[Refrão]
        
 A C#m A   E  F#m  A              E 
Haha, um dia tudo volta para seu lugar
A C#m A   E   F#m   A             E       
Haha, um dia vai ficar como devia estar
 F#m   A    B            E  
Vai ficar, como devia estar

[Final] Em  F4+

E|------------------------------------------------------|
B|------------------------------------------------------|
G|------------------------------------0-----------------|
D|-2-2-2-2-2-2-2-2-2-2--3-3-3-3-3-0-2---2-0-------------|
A|-2-2-2-2-2-2-2-2-2-2--3-3-3-3-3-----------2-0---------|
E|-0-0-0-0-0-0-0-0-0-0--1-1-1-1-1-----------------------|
Composición de Alvin L. / Dinho Ouro Preto / Kiko Zambianchi
Colaboración y revisión:
502 vistas
    • ½ Tono
    • A
    • Bb
    • B
    • C
    • Db
    • D
    • Eb
    • E
    • F
    • F#
    • G
    • Ab
  • Agregar a la lista

    0 comentarios

    Ver todos los comentarios

    ¿Lograste tocar?

    10 Tocaron 1 Aún no

    ¡Graba un video tocando Como Devia Estar y envíanoslo!

    00:00 / 00:00
    Outros vídeos desta música
    Repetir Calidad Automático
    Outros vídeos desta música
    00:00 / 00:00
    Automático
    OK