Cifra Club

Como Se Sente

Capital Inicial

Tab de bajo: Principal
G|------------------------------------------------------|
D|--------9-------9-----9------9---------9------9-------|
A|------------------------------------------------------|
E|---7-7-----7-7-----7-----7-7----7-7-------7-----------|

G|------------------------------------------------------|
D|---------11-------11-----11------11-------11-----11---|
A|------------------------------------------------------|
E|----9-9------9-9------9-----9-9------9-9------9-------|

G|--------11------11------11-------11-------11------11--|
D|------------------------------------------------------|
A|--9-9------9-9-------9------9-9------9-9------9-------|
E|------------------------------------------------------|

G|-------9------9----9-----9-------9-----9--------------|
D|------------------------------------------------------|
A|---7-7---7-7----7----7-7----7-7-----7-----------------|
E|------------------------------------------------------|
Composición de Alvin L. / Dinho Ouro Preto
Colaboración y revisión:
  • Jader Miguel
26 vistas

0 comentarios

Ver todos los comentarios

¿Lograste tocar?

3 Tocaron 0 Aún no

¡Graba un video tocando Como Se Sente y envíanoslo!

00:00 / 00:00
Outros vídeos desta música
Repetir Calidad Automático
Outros vídeos desta música
00:00 / 00:00
Automático
OK