Cifra Club

Aprenda

Construção Civil

Capital Inicial

Tablatura: Versão 3 (guitarra)
Tom: C
Intr.: (E5  F5  C5  D5 / D5  F5  C5  D5)

[Solo de Introdução]
    E5       F5         C5         D5         D5          F5          C5          D5
E|------------------------------------------|------------------------------------------|2
B|------------------------------------------|------------------------------------------|v
G|------------------------------------------|------------------------------------------|e
D|-------5---------5---------5---------5----|-------3---------3---------3---------3----|z
A|-7--7-----7---7-----7---7-----7---7-----7-|-5--5-----5---5-----5---5-----5---5-----5-|e
E|------------------------------------------|------------------------------------------|s
        

     E5    F5     C5   D5
   O que você vai ser
     E5     F5     C5   D5
   Quando você crescer?
     E5    F5   C5   D5
   E nas Fotografias
     E5    F5     C5   D5
   O que você vai ver?
 E5  F5    C5    D5
   O tempo passa
 E5  F5   C5   D5
   E você vê
  E5     F5     C5   D5        E5   F5   C5   D5
   Que existem coisas
 E5    F5   C5   D5
   Que você nunca
 E5 F5  C5  D5
   Imaginou
 E5    F5  C5   D5         E5   F5   C5   D5
   Que existissem.


   [Refrão]
E5             D5                    C5            D5
   Eu tenho um primo que trabalha na construção civil
E5          D5                 C5            D5
   Me conta coisas, diz que eu tenho que esperar
E5              D5              C5           D5
   Entre uma cerveja e outra se lembra do aluguel
E5              D5         C5    D5
   E então me explica como é feliz.


[Solo de Introdução]
    E5       F5         C5         D5         D5          F5          C5          D5
E|------------------------------------------|------------------------------------------|2
B|------------------------------------------|------------------------------------------|v
G|------------------------------------------|------------------------------------------|e
D|-------5---------5---------5---------5----|-------3---------3---------3---------3----|z
A|-7--7-----7---7-----7---7-----7---7-----7-|-5--5-----5---5-----5---5-----5---5-----5-|e
E|------------------------------------------|------------------------------------------|s


      E5    F5      C5    D5
   Eu tento ver nos olhos
          E5   F5   C5   D5
   Se ele fala a verdade
       E5  F5   C5    D5
   Mas ele se esquiva
     E5        F5    C5  D5
   E diz que é só cansaço
E5      F5      C5    D5
   Cê ainda tem muito
E5 F5    C5   D5
   Pra viver

E5      F5      C5  D5      E5   F5   C5   D5
   Como vai a escola?
   E5  F5  C5 D5
   E a sua turma?
         E5    F5    C5   D5
   O que é que vocês fazem?
        E5  F5  C5   D5       E5   F5   C5   D5
   Como é a sua vida?


   [Refrão]
E5             D5                    C5            D5
   Eu tenho um primo que trabalha na construção civil
E5          D5                 C5            D5
   Me conta coisas, diz que eu tenho que esperar
E5              D5              C5           D5
   Entre uma cerveja e outra se lembra do aluguel
E5              D5         C5    D5
   E então me explica como é feliz.
   

   [Solo da Guitarra]
E5                D5          C5              D5
   E|---------3---2-------------|---------3---5-----3---2-----|2
   B|-3---------------5---3-----|-3-------------------------5-|v
   G|-----4-------------------4-|-----4-----------------------|e
   D|---------------------------|-----------------------------|z
   A|---------------------------|-----------------------------|e
   E|---------------------------|-----------------------------|s
    
                                                  
   [Refrão]                                          __
E5             D5                     C5          D5   |
   Eu tenho um primo que trabalha na construção civil  |
E5              D5           C5          D5            |
   É tão seguro trabalhar na construção civil          |  Este ultimo refrão é acompanhado 
E5                  D5          C5         D5          |     pelo [Solo da Guitarra]
   Senso de responsabilidade na construção civil       |
   E5                       D5             [STOP]      |
   Pare de pensar na vida e vai trabalhar            __|

   Na construção Civil.
Compositor Renato Russo
Colaboración y revision:
  • Renan Santos
8 reproducciones
    • ½ Tom
    • A
    • Bb
    • B
    • C
    • Db
    • D
    • Eb
    • E
    • F
    • F#
    • G
    • Ab
  • Adicionar à lista

    0 comentarios

    Mostrar mais comentários

    ¿Conseguiste tocar?

    0 Tocaron 0 Ainda não

    Grave um vídeo tocando Construção Civil e mande pra gente!

    00:00 / 00:00
    outros vídeos desta música
    repetir qualidade Automático
    Outros vídeos desta música
    00:00 / 00:00
    Automático
    OK