Cifra Club

Aprenda

Eu Nunca Disse Adeus

Capital Inicial

Tab de bajo: Completa
Eu não sei o que eu to fazendo, mas|Eu tenho que fazer|
G|---------------------------------|------------------|
D|---------------------------------|------------------|
A|------------------------------3~-|------------------|
E|-3~-------------5~---------------|- 5~--------------|
 
Aquela noite que eu te conheci, eu acho,| Que nunca vou esquecer|Um momento quase perfeito|
G|--------------------------------------|-----------------------|-------------------------|
D|--------------------------------------|-----------------------|-------------------------|
A|------------------------------3~------|---------------5~------|-------------------------|
E|-3~-------------5~--------------------|-----------------------|-3~--------5~------------|


Inocente em seus defeitos |Tudo que é bom dura pouco| E não acaba cedo|
G|------------------------|-------------------------|-----------------|
D|------------------------|-------------------------|-----------------|
A|-3~---------------------|-------------------------|-3~-----------5~-|
E|---------------- 5~-----|-3~-----------5~---------|-----------------|

 (refrão)
 Agora, pra sempre, foi embora, mas eu nunca disse  adeus
G|----------------------------------------------------------|
D|----------------------------------------------------------|
A|-------------------3~--------------------5~---------------|
E|-3~----5~----------------------------------------------3~-|

 Agora, pra sempre, foi embora, mas eu nunca disse...
G|---------------------------------------------|
D|---------------------------------------------|
A|-------------------3~-------------------5~p7-|
E|-----5~--------------------------------------|

 Eu disse vamo embora, to meio tonto,         |Preciso respirar lá fora |
G|--------------------------------------------|-------------------------|
D|--------------------------------------------|-------------------------|
A|--------------------------------33333333333-|-------------------------|
E|-33333333333-----55555555555----------------|-----------55555555555---|


 Me leve para a sua casa, eu quero dormir| Onde você mora  |
G|---------------------------------------|-----------------|
D|---------------------------------------|-----------------|
A|---------------------------33333333333-|----55555555555--|
E|-33333333333---55555555555-------------|-----------------|


 Eu passando mal e você ria         |Tanto barulho, eu não entendia| Mas concordava sem saber |
G|----------------------------------|------------------------------|--------------------------|
D|----------------------------------|------------------------------|--------------------------|
A|--------------------------3333333-|------------------------------|------------------3333333-|
E|-3333333-----5555555--------------|-----5555555----------3333333-|---5555555----------------|
 

 Com tudo o que você dizia|Se me pedisse pra pular de um prédio|Eu diria sim|
G|------------------------|------------------------------------|------------|
D|------------------------|------------------------------------|------------|
A|------------5555555p7~--|--444444---------------------444444-|------------|
E|------------------------|--------------555555----------------|-----555555-|

Qualquer coisa pra você gostar de mim
G|---------------------------------------------
D|---------------------------------------------
A|--444444----------------333333------555555p7~ 
E|------------555555---------------------------

(Refrão)
 Agora, pra sempre, foi embora, mas eu nunca disse adeus
G|---------------------------------------------------------------
D|---------------------------------------------------------------
A|-------------------33333333--------------555555----------------
E|-3333--5555-------------------------------------------33333~ --

 Agora, pra sempre, foi embora, mas eu nunca disse...
G|----------------------------------------------------
D|----------------------------------------------------
A|-------------------33333333------------ 555555p7~ --
E|-----5555-------------------------------------------

 Eu perdi o rumo    |Comecei a delirar       | Acho que prometi até parar de beber e de fumar  |
G|------------------|------------------------|-------------------------------------------------|
D|------------------|------------------------|-------------------------------------------------|
A|------------------|-3333333-----555555p7~--|------------------------3333333----------5555555-|
E|-333333----555555-|------------------------|-3333333---5555555-------------------------------|

 De repente a noite acaba |E todo mundo some    |Me lembrei que eu esqueci de perguntar o seu nome |
G|------------------------|---------------------|--------------------------------------------------|
D|------------------------|---------------------|--------------------------------------------------|
A|------------------------|-33333333------------|--------------------------33333333----55555555p7~-|
E|-3333333-----5555555----|-------------5555555-|-33333333-------55555555--------------------------|

 Sem endereço nem direção por onde começar         |Qualquer coisa pra poder te encontrar          |
G|-------------------------------------------------|-----------------------------------------------|
D|-------------------------------------------------|-----------------------------------------------|
A|--444444-------------------444444----------------|--444444---------------333333--------555555p7~-|
E|--------------555555----------------------555555-|------------555555-----------------------------|
 

(Refrão)
 Agora, pra sempre, foi embora, mas eu nunca disse  adeus
G|-----------------------------------------------------------|
D|-----------------------------------------------------------|
A|------------------33333--------------55555-----------------|
E|-33333--55555----------------------------------------33333-|
      
 Agora, pra sempre, foi embora, mas eu nunca disse  adeus
G|-----------------------------------------------------------|
D|-----------------------------------------------------------|
A|------------------33333--------------55555-----------------|
E|----55555------------------------------------------33333---|
     
 Agora, pra sempre, foi embora, mas eu nunca disse  adeus
G|-----------------------------------------------------------|
D|-----------------------------------------------------------|
A|------------------33333--------------55555-----------------|
E|----55555------------------------------------------33333---|
      
 Agora, pra sempre, foi embora, mas eu nunca disse...
G|---------------------------------------------------|
D|---------------------------------------------------|
A|------------------33333--------------55555p7~ -----|
E|----55555------------------------------------------|

 Eu não como, eu não rio        | Eu não sei o que é adormecer |Me desculpe se eu fechar os olhos |
G|------------------------------|------------------------------|----------------------------------|
D|------------------------------|------------------------------|----------------------------------|
A|------------------------33333-|------------------------------|-------------------------33333----|
E|-33333------55555-------------|-----------------------55555--|-33333-----------55555------------|
 
 E desaparecer
G|--------------------
D|--------------------
A|------------55555p7~
E|--------------------

(Refrão)
 Agora, pra sempre, foi embora, mas eu nunca disse  adeus
G|-----------------------------------------------------------|
D|-----------------------------------------------------------|
A|------------------33333--------------55555-----------------|
E|-33333--55555----------------------------------------33333-|

 Agora, pra sempre foi embora, mas eu nunca disse
G|----------------------------------------------------|
D|----------------------------------------------------|
A|------------------33333--------------55555555555p7~-|
E|-------55555----------------------------------------|
Composição de Alvin L. / Dinho Ouro Preto
Colaboración y revision:
  • andersonsensualize
12 reproducciones

0 comentarios

Ver todos os comentários

¿Conseguiste tocar?

0 Tocaram 0 Ainda não

Grave um vídeo tocando Eu Nunca Disse Adeus e nos envie!

00:00 / 00:00
outros vídeos desta música
repetir qualidade Automático
Outros vídeos desta música
00:00 / 00:00
Automático
OK