Cifra Club

Aprenda

Eu Nunca Disse Adeus

Capital Inicial

Tablatura: Versão 4 (guitarra)
Tom: G
G                   Am                 C
Eu não sei o que eu to fazendo, mas 
        D
Eu tenho que fazer 
 G                   Am                  C
Aquela noite que eu te conheci, eu acho, 
                D
Que nunca vou esquecer 
G            Am
 Um momento quase perfeito 
C            D
 Inocente em seus defeitos 
G                 Am         C
 Tudo que é bom dura pouco   
            D
 E não acaba cedo 

Refrão
G       Am           C                 D              G
 Agora, pra sempre, foi embora, mas eu nunca disse  adeus 
        Am           C                 D    
 Agora, pra sempre, foi embora, mas eu nunca disse... 
 
riff
   G       Am      C      D
E|-3--3----0--0----0--0---2--2-----
B|-3---3---1---1---1---1--3---3----
G|-0-0--0--2-2--2--0-0--0-2-2---2-- 2X (a guitarra fica fazendo esse riff no refrão enquanto o violão

D|-0-------2-------2------0--------      faz as notas, só que na segunda vez, quando chega no D,
A|-2-------0-------3---------------      só toca ele 3 vezes)
E|-3-------------------------------


G                Am             C 
 Eu disse vamo embora, to meio tonto, 
             D
 Preciso respirar lá fora 
 G               Am       C
 Me leve para a sua casa, eu quero dormir 
       D
 Onde você mora 
G                Am         
 Eu passando mal e você ria 
C                     D                  
 Tanto barulho, eu não entendia 
G         Am          C
 Mas concordava sem saber 
                 D
 Com tudo o que você dizia 
Em                  Am                  Em
 Se me pedisse pra pular de um prédio 
           Am
 Eu diria sim 
Em        Am         C             D
 Qualquer coisa pra você gostar de mim 

    Em      Am    
E|-0-0-0---0-0-0----------|
B|-0-0--0--1-1--1---------|
G|-0-0---0-2-2---2--------| isso na parte "Se me pedisse pra pular..." 3X esse riff e ja entra 
D|-2-2-----2-2------------| nesse riff ai de baixo
A|-2-2-----0-0------------|
E|-0-0--------------------|

    C       D     
E|-0-0-0---2-2-2------|
B|-1-1--1--3-3--3-----|
G|-0-0---0-2-2---2----|
D|-2-2-----0-0--------|
A|-3-3----------------|
E|--------------------|



Refrão
 G      Am           C                  D            G
 Agora, pra sempre, foi embora, mas eu nunca disse adeus 
        Am         C                   D          
 Agora, pra sempre, foi embora, mas eu nunca disse... 

   G           Am          C           D
E|------------------------------------------------|
B|------------------------------------------------|
G|-------------------------5-x-5-x-5-x-7-x-7-x-7--|2X (toca e abafa)
D|-5-x-5-x-5-x-7-x-7-x-7-x-5-x-5-x-5-x-7-x-7-x-7--|
A|-5-x-5-x-5-x-7-x-7-x-7-x-3-x-3-x-3-x-5-x-5-x-5--|
E|-3-x-3-x-3-x-5-x-5-x-5-x------------------------|
 
G            Am    C
 Eu perdi o rumo 
            D
 Comecei a delirar 
 G             Am                  C          D
 Acho que prometi até parar de beber e de fumar
G              Am           C
De repente a noite acaba 
               D     
E todo mundo some 
G                  Am        C             D
 Me lembrei que eu esqueci de perguntar o seu nome 
Em                Am       Em             Am  
 Sem endereço nem direção por onde começar 
Em         Am          C            D
 Qualquer coisa pra poder te encontrar 

    Em      Am    
E|-0-0-0---0-0-0----------|
B|-0-0--0--1-1--1---------|
G|-0-0---0-2-2---2--------| isso na parte "sem endereço nem direção..." 3X esse riff e ja entra 
D|-2-2-----2-2------------| nesse riff ai de baixo
A|-2-2-----0-0------------|
E|-0-0--------------------|

    C       D     
E|-0-0-0---2-2-2------|
B|-1-1--1--3-3--3-----|
G|-0-0---0-2-2---2----|
D|-2-2-----0-0--------|
A|-3-3----------------|
E|--------------------|


 Refrão
G       Am           C                 D              G
 Agora, pra sempre, foi embora, mas eu nunca disse  adeus 
        Am           C                 D              G
 Agora, pra sempre, foi embora, mas eu nunca disse  adeus
        Am           C                 D              G  
 Agora, pra sempre, foi embora, mas eu nunca disse  adeus
        Am           C                 D             
 Agora, pra sempre, foi embora, mas eu nunca disse... 
 
   G           Am          C           D
E|------------------------------------------------|
B|------------------------------------------------|
G|-------------------------5-x-5-x-5-x-7-x-7-x-7--|4X (toca e abafa)
D|-5-x-5-x-5-x-7-x-7-x-7-x-5-x-5-x-5-x-7-x-7-x-7--|
A|-5-x-5-x-5-x-7-x-7-x-7-x-3-x-3-x-3-x-5-x-5-x-5--|
E|-3-x-3-x-3-x-5-x-5-x-5-x------------------------|

G            Am            C
 Eu não como, eu não rio 
                       D
 Eu não sei o que é adormecer 
G                   Am             C
 Me desculpe se eu fechar os olhos 
            D
 E desaparecer 

Refrão 
G       Am           C                  D             G
 Agora, pra sempre, foi embora, mas eu nunca disse  adeus
        Am          C                  D    D   D (termina soando o D)
 Agora, pra sempre foi embora, mas eu nunca disse...

 
riff
   G       Am      C      D
E|-3--3----0--0----0--0---2--2-----
B|-3---3---1---1---1---1--3---3----
G|-0-0--0--2-2--2--0-0--0-2-2---2-- 2X (a guitarra fica fazendo esse riff no refrão enquanto o violão

D|-0-------2-------2------0--------      faz as notas, só que na segunda vez, quando chega no D,
A|-2-------0-------3---------------       só toca ele 3 vezes)
E|-3-------------------------------
 
e termina no D.
Compositor Alvin L. / Dinho Ouro Preto
Colaboración y revision:
  • Élison Duarte
6 reproducciones
  • Simplificar cifra
    • ½ Tom
    • A
    • Bb
    • B
    • C
    • Db
    • D
    • Eb
    • E
    • F
    • F#
    • G
    • Ab
  • Adicionar à lista

    0 comentarios

    Mostrar mais comentários

    ¿Conseguiste tocar?

    0 Tocaron 0 Ainda não

    Grave um vídeo tocando Eu Nunca Disse Adeus e mande pra gente!

    00:00 / 00:00
    outros vídeos desta música
    repetir qualidade Automático
    Outros vídeos desta música
    00:00 / 00:00
    Automático
    Capítulos
    • Início
    • Acordes da introdução
    • Tocando introdução
    • Ensinando ritmo da introdução
    • Acordes da primeira parte
    • Tocando primeira parte + refrão
    • Ensinando o ritmo da música
    • Tocando a música
    • Encerramento
    OK