Cifra Club

Aprenda

Mais

Capital Inicial

Tab de bajo: Principal
	Intro e Verso:	   	  Variação da intro:
G---------------------------- | -------------------
D---------------------------- | -------------------
A------2--3--5--5----0--3---- | --5-5-5-5-5-5-5-5--
E-3--3----------------------- | -------------------

 		Caida para o refrão :
G---------------------------------------------------------
D---------------------------------------------------------
A--7-7-7-6---7-6---7---------------2-2-2-2-2--4-4-4-4-4---
E----------7-----7------5-5-5-5-5-------------------------

    	Refrão:(2x)			Variação do Refrão
G----------------------------- | -----------------------------------
D----------------------------- | -----------------------------------
A--3-2---3-2----5--5-3-2------ | ---3-2---3-2----5--2-3-5-3-2-------
E------3-----3-----------5-3-- | -------3-----3---------------5-3---
 
	Pós 2º Refrão :
G------------------------------------------------------------------------------
D------------------------------------------------------------------------------
A----------------------5-5-5-5-5-5-------5-5-5------3-3-3-3-3-3---5-5-5-5-5-5--
E--5-5-5-5-5-5-5-5-5---------------5-7-5---------------------------------------

      Variação do 3º Refrão
G----------------------------
D----------------------------
A---7-7---9-9---10-10---7----
E----------------------------

	Final: 
G-------------------------------------------------------------------
D-------------------------------------------------------------------
A---7-7---9-9---10-10----7-5-3---3-5--3---3-5---3---3-5---3---3-5---
E-----------------------------------------------------------------3-

_______________________________________________________
Contribuição: José Mário Zanini(jmzaninis@hotmail.com)
Compositor Alvin L. / Dinho Ouro Preto / Kiko Zambianchi
28 reproducciones

0 comentarios

Mostrar mais comentários

¿Conseguiste tocar?

1 Tocaron 0 Ainda não

Grave um vídeo tocando Mais e mande pra gente!

00:00 / 00:00
outros vídeos desta música
repetir qualidade Automático
Outros vídeos desta música
00:00 / 00:00
Automático
OK