Cifra Club

Me Encontra

Capital Inicial

Cifrado: Principal (guitarra y guitarra eléctrica)
tono: E
 C#7M   E5    A5     B    A    G#  
E|------|------|------|----|----|-----|
B|------|------|------|----|----|-----|
G|-6-6-6|-9-9-9|------|----|----|-----|
D|-6-6-6|-9-9-9|-7-7-7|-9-9|-7-7|-6-6-|
A|-4-4-4|-7-7-7|-7-7-7|----|----|-----|
E|------|------|-5-5-5|-7-7|-5-5|-4-4-|

   Riff
E|------------------|----------|
B|-10-10-10-10-9----| 10-9-----|
G|--------------11-9|-----11-9-|
D|------------------|----------|
A|------------------|----------|
E|------------------|----------|

E|---------------------------------|
B|-10-10-10-10-9-10-10~12-10-9-10-9|
G|---------------------------------|
D|---------------------------------|
A|---------------------------------|
E|---------------------------------|

E|-------------------|---------|-------------------------|
B|-10-10-10-10-9-----| 10-9-----|-10-10-10-10-9-10-10~12-|
G|---------------11-9|-----11-9|-------------------------|
D|-------------------|---------|-------------------------|
A|-------------------|---------|-------------------------|
E|-------------------|---------|-------------------------|

C#7M                        E5 
Hoje eu vou sair para encontrar o amor
         A5                          B  A G#          
Que eu espero há tanto tempo e ainda não rolou
   C#7M                          E5      
O vento diz que é hoje em meio à multidão
       A5                           B A G# 
Que eu vou encontrar a dona do meu coração

      C#7M    E5 
E aí sempre
A5                                             C#7M    E5   
Sorrir e chorar, e ter alguém pra compartilhar sempre
A5                                     C#7M    E5 
Viver para alguém que me ama e dividir sempre
A5
Felicidade e amor

            C#m E5     B11              A5
Então me encontra  ou deixa eu te encontrar
            C#m E5     B11              A5
       Me encontra ou deixa eu te encontrar
            C#m E5     B11              A5
       Me encontra ou deixa eu te encontrar
            C#m E5     B11              A5
       Me encontra ou deixa eu te encontrar

C#7M           E5 
Eu não conheço todas as flores
A5                       B A G# 
Mas vou mandar todas que eu puder
C#7M           E5
Vivemos tempos de loucos amores
A5                       B A G#
Só é feliz quem sabe o que quer

REFRÃO
      C#m E5     B11              A5
Me encontra  ou deixa eu te encontrar
      C#m E5     B11              A5
Me encontra ou deixa eu te encontrar
      C#m E5     B11              A5
Me encontra ou deixa eu te encontrar
      C#m E5     B11              A5
Me encontra ou deixa eu te encontrar

SOLO (BASE DO REFRÃO)
E|-----------------|-----------------|
B|--12-12-10-9-10-9|--12-12-10-9-10-9|
G|~9---------------|~9---------------|
D|-----------------|-----------------|
A|-----------------|-----------------|
E|-----------------|-----------------|

E|------------------------------|
B|------12-----12-----12----12--|
G|-11-13--11-13--11-13--11-13-11|
D|------------------------------|
A|------------------------------|
E|------------------------------|

E|------------------------------|
B|------12-----12-----12----12--|
G|-11-13--11-13--11-13--11-13-11|
D|------------------------------|
A|------------------------------|
E|------------------------------|

E|-----------------|-----------------|
B|--12-12-10-9-10-9|--12-12-10-9-10-9|
G|~9---------------|~9---------------|
D|-----------------|-----------------|
A|-----------------|-----------------|
E|-----------------|-----------------|

E|--------------------7----|
B|--9-9--7-7-4~5~4-7~9--7~9|
G|-9----9------------------|
D|-------------------------|
A|-------------------------|
E|-------------------------|

E|---------------------------|---------------------12|
B|--------------------12-----|------12--12-14-12-14--|
G|--9-11-9-11-13-11-13--13-11|-11-13--13-------------|
D|-11------------------------|-----------------------|
A|---------------------------|-----------------------|
E|---------------------------|-----------------------|

( C#7M B11 A5 )

C#7M                 (B A G#)
Fico pensando aonde está você

B11                        (A G# F#)
E se você está pensando em me encontrar

C#7M                           (B A G#)
Como sou, aonde estou e aonde quero chegar

B11                                 (A G# F#)
Como sou, como é que vai ser e onde vou te levar

C#7M                        (B A G#)
Mas se você me ver, pode acenar pra mim

B11                          (A G# F#)
Já pensou que louco te encontrar assim?

C#7M                                    (B A G#)
Eu vou na boa, eu vou na fé, eu sei que vou te encontrar

B11                                (A G# F#)
E quando eu te encontrar nós vamos comemorar

      C#m E5     B11              A5
Me encontra  ou deixa eu te encontrar
      C#m E5     B11              A5
Me encontra ou deixa eu te encontrar
      C#m E5     B11              A5
Me encontra ou deixa eu te encontrar
      C#m E5     B11              A5
Me encontra ou deixa eu te encontrar
Composición de Chorão / Thiago Castanho
Colaboración y revisión:
  • Érlon Santos
  • Junior Assonsim
  • Renê Augusto
135 vistas
    • ½ Tono
    • A
    • Bb
    • B
    • C
    • Db
    • D
    • Eb
    • E
    • F
    • F#
    • G
    • Ab
  • Agregar a la lista

    0 comentarios

    Ver todos los comentarios

    ¿Lograste tocar?

    1 Tocaron 0 Aún no

    ¡Graba un video tocando Me Encontra y envíanoslo!

    00:00 / 00:00
    Outros vídeos desta música
    Repetir Calidad Automático
    Outros vídeos desta música
    00:00 / 00:00
    Automático
    OK