Cifra Club

Aprenda

O Mundo

Capital Inicial

Tablatura: Principal (guitarra)
Tom: D
Intro 2x:

   E
Tchuru tchu, tchuru tchu
   A5(9)          C#m
Tchuru tchuru, tchuru tchu

Primeira parte:

E
  Você que já esteve no céu
                          A5(9)
Foi tudo divertido pra você

Chega a hora então
       C#m
De provar tudo que existe
E
  Tire agora os sapatos

Jogue tudo pro alto, sinta o chão
A5(9)
      Aprender a andar descalço
                C#m
Num mundo de asfalto e sem coração
  B5(9)          E             A5(9)
Até que o mundo gire ao seu redor

Repete Intro 2x:

   E
Tchuru tchu, tchuru tchu
   A5(9)          C#m
Tchuru tchuru, tchuru tchu

Segunda Parte:

E
  Obrigado por passar mas estou de saída
                             A5(9)
Tem alguma coisa nova pra fazer
                       C#m
Vamos lá então ter um dia diferente
E
  Eu só quero curtir, ficar à toa, viver numa boa
A5(9)
      E você quer respostas
        C#m
Exige provas e músicas novas
  B5(9)          E             A5(9)
Até que o mundo gire ao seu redor

Refrão:

F#
   Vão falar que você não é nada
A5(9)
      Vão falar que você não tem casa
E                     B5(9)
  Vão falar que você não merece
    C#m
Que anda bebendo, está perdido
F#
   E não importa o que você dissesse
A5(9)
      Você seria desmentido
E                    B5(9)
  Vou falar que você usa drogas
C#m
E diz coisas sem sentido
A5(9)              E/G#
      Se eu for ligar
           C#m          B5(9)
Para o que é que vão falar
          A5(9)
Não faço nada

Terceira Parte:

E
  Eu procuro tentar entender
                             A5(9)
Porque sou importante pra você
                              C#m
Já que é bem melhor ser importante pra si mesmo
E
  Eu não quero mudar

Ser mais discreto, ser mais esperto
A5(9)
      Já cansei de propostas
        C#m
Dar respostas e ter que dar certo
  B5(9)          E             A5(9)
Até que o mundo gire ao meu redor

Refrão:

F#
   Vão falar que você não é nada
A5(9)
      Vão falar que você não tem casa
E                     B5(9)
  Vão falar que você não merece
    C#m
Que anda bebendo, está perdido
F#
   E não importa o que você dissesse
A5(9)
      Você seria desmentido
E                    B5(9)
  Vou falar que você usa drogas
C#m
E diz coisas sem sentido
A5(9)              E/G#
      Se eu for ligar
           C#m          B5(9)
Para o que é que vão falar
          A5(9)
Não faço nada

Ponte:

   E            A5(9)          C#m
Tchuru tchu, Tchuru tchuru, Tchuru tchu
   F#         A5(9)           E
Tchuruthu, tchu tchu tchu, tchuru

Base solo:

E  A5(9)  C#m  E  A5(9)  C#m  B5(9)  E  A5(9)

Solo:

1ª parte:

E|---------------------------------------------------|
B|---------------------------------------------------|
G|-------14-12--------14-12-14-12-12-----------------|
D|-12h14----12--12h14-14-12-14-12-12-14-12-----------|
A|-----------------------------------14-12-----------|
E|---------------------------------------------------|

2ª parte:

E|---------------------------------------------------|
B|---------------------------------------------------|
G|-------14-12-12-----------14-12-12-14-12-----------|
D|-12h14-14-12-12-14--12h14-14-12-12-14-12-----------|
A|-12h14----------14--12h14--------------------------|
E|---------------------------------------------------|

3ª parte:

E|-12-12-12-12-12-12--12-12-12-12--------------------|
B|-12-12-12-12-12-12--12-12-12-12-14-14-12-12--------|
G|--------------------------------14-14-12-12--------|
D|---------------------------------------------------|
A|---------------------------------------------------|
E|---------------------------------------------------|

4ª parte:

E|---------------------------------------------------|
B|----------12---------------------------------------|
G|-12h14-12-12--------12----------12-----------------|
D|-12h14-12-----12h14-12h14-12h14-12h14--------------|
A|---------------------------------------------------|
E|---------------------------------------------------|

Refrão:

F#
   Vão falar que você não é nada
A5(9)
      Vão falar que você não tem casa
E                     B5(9)
  Vão falar que você não merece
    C#m
Que anda bebendo, está perdido
F#
   E não importa o que você dissesse
A5(9)
      Você seria desmentido
E                    B5(9)
  Vou falar que você usa drogas
C#m
E diz coisas sem sentido
A5(9)              E/G#
      Se eu for ligar
           C#m          B5(9)
Para o que é que vão falar
          A5(9)
Não faço nada

Final:

   E
Tchuru tchu, tchuru tchu
   A5(9)          C#m
Tchuru tchuru, tchuru tchu
   E
Tchuru tchu, tchuru tchu
   A5(9)          C#m     B5(9)  E  A5(9)
Tchuru tchuru, tchuru tchu
Compositor Pit Passarell
Colaboración y revision:
520 reproducciones
  • Simplificar cifra
    • ½ Tom
    • A
    • Bb
    • B
    • C
    • Db
    • D
    • Eb
    • E
    • F
    • F#
    • G
    • Ab
  • Adicionar à lista

    0 comentarios

    Mostrar mais comentários
    00:00 / 00:00
    outros vídeos desta música
    repetir qualidade Automático
    Outros vídeos desta música
    00:00 / 00:00
    Automático
    Capítulos
    • Início
    • Tocando a música
    • Acordes da Introdução e Primeira Parte
    • Tocando Introdução e Primeira Parte
    • Ensinando Introdução e Primeira Parte
    • Acordes do Refrão
    • Tocando Refrão
    • Ensinando Refrão
    • Tocando Solo
    • Ensinando Solo - Parte 1
    • Ensinando Solo - Parte 2
    • Ensinando Solo - Parte 3
    • Ensinando Solo - Parte 4
    • Encerramento
    OK