Cifra Club

Quatro Vezes Você

Capital Inicial

Cifrado: Principal (guitarra y guitarra eléctrica)
Já pensou em usar uma coleção de roupas do Cifra Club? Responda as perguntas abaixo e nos ajude nessa missão! →
tono: D
[Intro] Em7  A7  Em7  A7
        Em7  A7  Em7  A7

[Riff]
 
E|------------------------------------------|
B|------------------------------------------|
G|------------------------------------------|
D|------------------------------------------|
A|-----2-----0-0-----0----------------------|
E|-0-3---3/5-----3/5---3--------------------|

E|------------------------------------------|
B|------------------------------------------|
G|------------------------------------------|
D|------------------------------------------|
A|-----2-----0-0-----0----------------------|
E|-0-3---3/5-----3/5---3--------------------|

E|------------------------------------------|
B|------------------------------------------|
G|------------------------------------------|
D|------------------------------------------|
A|-----2-----0-0-----0----------------------|
E|-0-3---3/5-----3/5---3--------------------|

E|------------------------------------------|
B|------------------------------------------|
G|------------------------------------------|
D|------------------------------------------|
A|-----2-----0-0-----0----------------------|
E|-0-3---3/5-----3/5---3-0------------------|

[Primeira Parte]

Em7                  A7                      Em7
   Rafaela está trancada há dois dias no banheiro
            A7      Em7                    
Enquanto a sua mãe,    toma prozac
         A7                   Em7
Enche a cara e dorme o dia inteiro
        G            A7
Parece muito, mas podia ser

Em7                  A7                  Em7
   Carolina pinta as unhas roídas de vermelho
          A7
Em vez de estudar
Em7              A7             Em7
   Fica fazendo poses nua no espelho
            G           A7
Parece estranho, mas podia ser

[Refrão]

         G           Bm
O que você faz quando
            G          Bm
Ninguém te vê fazendo
            C           D                A7
Ou o que você queria fazer se ninguém pudesse te ver?

( Em7  A7  Em7  A7 )
( Em7  A7  Em7  A7 )

[Primeira Parte]

Em7                 A7                    Em7
   Gabriel e a namorada se divertem no escuro
  A7        Em7                   A7                Em7
E o seu pai    acha tudo que ele faz errado e sem futuro
         G           A7
É complicado, mas podia ser

Em7         A7                       Em7
   Mariana gosta de beijar outras meninas
            A7
De vez em quando
Em7               A7                     Em7
   Beija meninos só pra não cair numa rotina
       G            A7
É diferente, mas podia ser

[Refrão]

         G           Bm
O que você faz quando
            G          Bm
Ninguém te vê fazendo
          C           D                A7
Ou que você queria fazer se ninguém pudesse te ver?

         G           Bm
O que você faz quando
            G          Bm
Ninguém te vê fazendo
          C           D                A7
Ou que você queria fazer se ninguém pudesse te ver?

[Solo] Em7  A7  Em7  A7
       Em7  A7  Em7  A7

E|---------------------------------------------------|
B|---------------------------------------------------|
G|-----0-2-2/4-0-------------------------------------|
D|-1/2-----------2-0h2-0-----------------------------|
A|-----------------------2-2/4-----------------------|
E|---------------------------------------------------|

E|---------------------------------------------------|
B|---------------------------------------------------|
G|---------------------------------------------------|
D|-2/4-4-4-4/5-5-5-5/7-7-7-7/9-9-9-------------------|
A|---------------------------------------------------|
E|---------------------------------------------------|

E|---------------------------------------------------|
B|---------------------------------------------------|
G|---------------------------------------------------|
D|-9-9-9-9-9-9-9-9-9-9-9-9-9-9-----------------------|
A|---------------------------------------------------|
E|---------------------------------------------------|

E|------------15-------------------15-------15\------|
B|------17----------------17----------------17\------|
G|14/16----16----16-16-16----16-16----16-16----------|
D|---------------------------------------------------|
A|---------------------------------------------------|
E|---------------------------------------------------|

E|------------15-------------------------------------|
B|------17-------------------------------------------|
G|14/16----16----16-16-16----------------------------|
D|---------------------------------------------------|
A|---------------------------------------------------|
E|---------------------------------------------------|

E|-17-------15----15-15-15-15-15-15\-----------------|
B|----------------17-17-17-17-17-17\-----------------|
G|----16-16----16------------------------------------|
D|---------------------------------------------------|
A|---------------------------------------------------|
E|---------------------------------------------------|

E|-------10-------10--------------15----------14\----|
B|-10/12----12-12----12-12--12/17----17-15-15---\----|
G|---------------------------------------------------|
D|---------------------------------------------------|
A|---------------------------------------------------|
E|---------------------------------------------------|

E|-------10-------10-------------15----------14------|
B|-10/12----12-12----12-12-12/17----17-15-15----15-15|
G|---------------------------------------------------|
D|---------------------------------------------------|
A|---------------------------------------------------|
E|---------------------------------------------------|

[Refrão]

         G           Bm
O que você faz quando
            G          Bm
Ninguém te vê fazendo
          C           D                A7
Ou que você queria fazer se ninguém pudesse te ver?

         G           Bm
O que você faz quando
            G          Bm
Ninguém te vê fazendo
          C           D                A7
Ou que você queria fazer se ninguém pudesse te ver?

         G           Bm
O que você faz quando
            G          Bm
Ninguém te vê fazendo
          C           D                A7
Ou que você queria fazer se ninguém pudesse te ver?

         G           Bm
O que você faz quando
            G          Bm
Ninguém te vê fazendo
          C           D                A7
Ou que você queria fazer se ninguém pudesse te ver?

[Final] Em7  A7  Em7  A7
        Em7  A7  Em7  A7

E|------------------------------------------|
B|------------------------------------------|
G|------------------------------------------|
D|------------------------------------------|
A|-----2-----0-0-----0----------------------|
E|-0-3---3/5-----3/5---3--------------------|

E|------------------------------------------|
B|------------------------------------------|
G|------------------------------------------|
D|------------------------------------------|
A|-----2-----0-0-----0----------------------|
E|-0-3---3/5-----3/5---3-0------------------|


Composición de Alvin L / Dinho Ouro Preto
1.318 vistas
  • Simplificar cifrado
    • ½ Tono
    • A
    • Bb
    • B
    • C
    • Db
    • D
    • Eb
    • E
    • F
    • F#
    • G
    • Ab
  • Agregar a la lista

    0 comentarios

    Ver todos los comentarios

    ¿Lograste tocar?

    85 Tocaron 2 Aún no

    ¡Graba un video tocando Quatro Vezes Você y envíanoslo!

    00:00 / 00:00
    Outros vídeos desta música
    Repetir Calidad Automático
    Outros vídeos desta música
    00:00 / 00:00
    Automático
    Capítulos
    • Início
    • Tocando a música
    • Acordes da introdução e primeira parte
    • Tocando introdução e primeira parte
    • Ensinando Riff (introdução)
    • Ensinando ritmo das guitarras
    • Ritmo e dicas de pedal para a guitarra (solo)
    • Acordes do refrão
    • Tocando refrão
    • Ensinando ritmo do refrão
    • Acordes e base do solo
    • Tocando Solo
    • Tocando solo (tablatura)
    • Pedais e efeitos (Solo)
    • Ensinando Solo (Parte 1)
    • Ensinando Solo (Parte 2)
    • Ensinando Solo (Parte 3)
    • Ensinando Solo (Parte 4)
    • Ensinando Solo (Parte 5)
    • Ensinando Solo (Parte 6)
    • Encerramento
    OK