Cifra Club

Aprenda

Quatro Vezes Você

Capital Inicial

Tab de bajo: Completa
Solo:
G------------------------------------------------------------------------------------
D-----------------------------------------------------------------------------------
A------------------------2---------0---0---0---0---0---0---0---0---------------
E---0---------3-------------------------------------------------------------------

Base Principal:(Rafaela está trancada....)

G---------------------------------------------
D---------------------------------------------
A----------------------------2---2---2-------
E---0---0---0---0---3---3-------------------

G---------------------------------------------------------------------------------------------------------
D--------------------------------------------------------------------------------------------------------
A--0-----0------0------------4-----------4------------------------------------------------------------
E----------------------3------------3--------------2--------3-----0-----0-----3----0-----3-----0----

G-------------------------------------------------------------------------------------------------
D--------------------------------------------------------------------------------------------------
A--2---2----2---------4---4--------2--2--2--2--2--2---------0----0--------4----0---------0----
E------------------------------0------------------------3--------------3--------------3--------

G--------------------------------------------------------------------------------------------------------
D-------------------------------------------------------------------------------------------------------
A------------------------------------------2-----2-----0------------0---0---0---0---0---0---0---0---
E--------0----0----3---0----3----0----------------------------3---------------------------------------

G-----------------------------------------------------------------------------
D------------------------------------------------------------------------------
A---0---0---0---0---0---0---0---0----------------------------2---2--------
E--------------------------------------0---0---0---0---3---3---------------

G------------------------------------------------------------------------------------------------------
D----------------------------------------------------------------------------------------------------
A-----0-----0------0----------4-----------4-------------------------------------------------------
E------------------------3------------3------------2--------3----0----0----0---0----0----3---0--

G------------------------------------------------------------------------------------------------------
D------------------------------------------------------------------------------------------------------
A---2---2----2--------4----4---------------------------------------0---0---0---4---4---4---4---4--
E---------------------------------0---0---0---3---3---3---3---3--------------------------------------

G--------------------------------------------------------------------------
D--------------------------------------------------------------------------
A---------------------------------------2---2---2---2---2---2---2---2---
E---0---0---0---0---0---0---0---0---------------------------------------

G--------------------------------------------------------------------------
D----------------------------------------------------------------------------
A--0---0---0---0---0---0---0---0---0---0---0---0---0---0---0---0-------
E------------------------------------------------------------------------------

Refrão:(Oque Você Faz Quando...)
G----------------------------------------------------------------------------                                  D---------------------------------------------------------------------------      
A--------------------------------------2---2---2---2---2---2---2---2------       
E----3---3---3---3---3---3---3---3----------------------------------------


G----------------------------------------------------------------------------
D---------------------------------------------------------------------------
A--------------------------------------2---2---2---2---2---2---2---2------
E----3---3---3---3---3---3---3---3----------------------------------------

G------------------------------------------------------------------------------
D------------------------------------------------------------------------------
A---5---5---5---5---5---5---5---5---5----------------------------------------
E---------------------------------------------5---5---5---5---5---5---5---5---

G----------------------------------------------
D--------------------------------------------
A---------------------------------------------
E---5---5---5---5---5---5---5---5---------

Solo:
G------------------------------------------------------------------------------------
D-----------------------------------------------------------------------------------
A------------------------2---------0---0---0---0---0---0---0---0---------------     4X
E---0---------3-------------------------------------------------------------------

Base:
G------------------------------------------------
D------------------------------------------------
A-------------------------------2----2----------
E---0----0---0----0----3----3-------------------

G---------------------------------------------------------------------------------------------------------
D--------------------------------------------------------------------------------------------------------
A--0-----0------0------------4-----------4------------------------------------------------------------
E----------------------3------------3--------------2--------3-----0-----0-----3----0-----3-----0----

G-------------------------------------------------------------------------------------------------
D--------------------------------------------------------------------------------------------------
A--2---2----2---------4---4--------2--2--2--2--2--2---------0----0--------4----0---------0----
E------------------------------0------------------------3--------------3--------------3--------

G--------------------------------------------------------------------------------------------------------
D-------------------------------------------------------------------------------------------------------
A------------------------------------------2-----2-----0------------0---0---0---0---0---0---0---0---
E--------0----0----3---0----3----0----------------------------3---------------------------------------

G-----------------------------------------------------------------------------
D------------------------------------------------------------------------------
A---0---0---0---0---0---0---0---0----------------------------2---2--------
E--------------------------------------0---0---0---0---3---3---------------

G----------------------------------------------------------------------------------------------
D----------------------------------------------------------------------------------------------
A-----0-----0------0----------4-----------4-----------------------------------------------------
E------------------------3------------3------------2--------3----0----0----0---0----0----3---0--

G-------------------------------------------------------------------------------------------------
D--------------------------------------------------------------------------------------------------
A---2---2----2--------4----4---------------------------------------0---0---0---4---4---4---4---4--
E---------------------------------0---0---0---3---3---3---3---3-----------------------------------

G--------------------------------------------------------------------------
D--------------------------------------------------------------------------
A---------------------------------------2---2---2---2---2---2---2---2---
E---0---0---0---0---0---0---0---0---------------------------------------

G--------------------------------------------------------------------------
D----------------------------------------------------------------------------
A--0---0---0---0---0---0---0---0---0---0---0---0---0---0---0---0-------
E------------------------------------------------------------------------------

Refrão(O Que você faz quando...)
G----------------------------------------------------------------------------                                     D---------------------------------------------------------------------------       2X
A--------------------------------------2---2---2---2---2---2---2---2------       
E----3---3---3---3---3---3---3---3----------------------------------------

G---------------------------------------------------------------------------- 
D---------------------------------------------------------------------------
A--------------------------------------2---2---2---2---2---2---2---2------
E----3---3---3---3---3---3---3---3----------------------------------------

G------------------------------------------------------------------------------
D------------------------------------------------------------------------------
A---5---5---5---5---5---5---5---5---5----------------------------------------
E---------------------------------------------5---5---5---5---5---5---5---5---

G----------------------------------------------
D--------------------------------------------
A---------------------------------------------
E---5---5---5---5---5---5---5---5---------

Solo De Guitarra:
G-------------------------------------------------------------------------------------------
D-------------------------------------------------------------------------------------------
A-----------------------------0---0----2---2---2------------------------------------------
E---0--0--0----3---3---3-----------------------------3---3---3----0---0---0---0---0----

G-------------------------------------------------------------
D--------------------------------------------------------------
A---------------------------------------------------------------
E---0---0---0---0---0----3---3---3---3----7---7---7---7------

G--------------------------------------------------------------
D--2--X--4--X--4--X--4--2-----2--X--4--X--4--X--4--2----
A--------------------------------------------------------------
E------------------------------------------------------------

G----------------------------------------------------------------------------------------------------
D---2---2---2---2---2---2---2---2---2------2---2--2---2---2---2---7---7----7---7---7---7------
A------------------------------------------------------------------------------------------------------
E-------------------------------------------------------------------------------------------------------

G------------------------------------------------------------------------------------------------------------
D---5---2---2---2---2---2---2---2---2------2---2---2---2---2---2---2----2-----0---0---0---0-----2-----
A-------------------------------------------------------------------------------------------------------------
E-------------------------------------------------------------------------------------------------------------

G----------------------------------------------------------------------
D------2---2---2---2---2---2---2----2------0---0---0---0-----2-----
A------------------------------------------------------------------------
E-------------------------------------------------------------------------

Refrão(4X):

-Solo:(4X)
G------------------------------------------------------------------------------------
D-----------------------------------------------------------------------------------
A------------------------2---------0---0---0---0---0---0---0---0---------------
E---0---------3-------------------------------------------------------------------
Composição de Alvin L / Dinho Ouro Preto
Colaboración y revision:
  • Guilherme Henrique

0 comentarios

Ver todos os comentários

¿Conseguiste tocar?

0 Tocaram 0 Ainda não

Grave um vídeo tocando Quatro Vezes Você e nos envie!

00:00 / 00:00
outros vídeos desta música
repetir qualidade Automático
Outros vídeos desta música
00:00 / 00:00
Automático
OK