Cifra Club

Aprenda

Química

Capital Inicial

Tablatura: Principal (guitarra)
Tom: G
Intro: A5  G5  F#5

       A5                G5       F#5
Estou trancado em casa e não posso sair
   A5             G5          F#5
Papai já disse, tenho que passar
    A5              G5           F#5
Nem música eu não posso mais ouvir
     A5            G5            F#5
E assim não posso nem me concentrar

Refrão:
"Não saco nada de Física
 Literatura ou Gramática.."
(repete a sequência em cada verso)

E|------------------------------|
B|------------------------------|
G|--------------9/7-------------|
D|--4-4-4-4-----9/7-------------|
A|--4-4-4-4-----7/5-------------|
E|--2-2-2-2---------------------|


"Só gosto de Educação Sexual.."

E|-------------------------|
B|-------------------------|
G|------------5-5-5-5------|
D|--5-5-5-5---5-5-5-5------|
A|--5-5-5-5---3-3-3-3------|
E|--3-3-3-3----------------|


"E eu odeio Química Química Química.."

E|-----------------------------------|
B|-----------------------------------|
G|--10-10-10-10/9-9-9-9--------------|
D|--10-10-10-10/9-9-9-9--------------|
A|--8--8--8--8/-7-7-7-7--------------|
E|-----------------------------------|



Intro: A5  G5  F#5

     A5            G5          F#5
Não posso nem tentar me divertir
  A5             G5           F#5
O tempo inteiro eu tenho que estudar
     A5           G5           F#5
Fico só pensando se vou conseguir
    A5           G5         F#5
Passar na porra do vestibular

Refrão:
"Não saco nada de Física
 Literatura ou Gramática.."
(repete a sequência em cada verso)

E|------------------------------|
B|------------------------------|
G|--------------9/7-------------|
D|--4-4-4-4-----9/7-------------|
A|--4-4-4-4-----7/5-------------|
E|--2-2-2-2---------------------|


"Só gosto de Educação Sexual.."

E|-------------------------|
B|-------------------------|
G|------------5-5-5-5------|
D|--5-5-5-5---5-5-5-5------|
A|--5-5-5-5---3-3-3-3------|
E|--3-3-3-3----------------|


"E eu odeio Química Química Química.."

E|--------------------------------------------------------------------|
B|--------------------------------------------------------------------|
G|--10-10-10-10/9-9-9-9/7-7-7-7/5-5-5-5/4-4-4-4/9-9-9-9-9/7-----------|
D|--10-10-10-10/9-9-9-9/7-7-7-7/5-5-5-5/4-4-4-4/9-9-9-9-9/7-----------|
A|--8--8--8--8/-7-7-7-7/5-5-5-5/3-3-3-3/2-2-2-2/7-7-7-7-7/5-----------|
E|--------------------------------------------------------------------|



 A5                     G5
Chegou a nova leva de aprendizes
  D5                     C5
Chegou a vez do nosso ritual
  A5                        G5
E se você quiser entrar na tribo
  D5                       C5
Aqui no nosso Belsen tropical

Riff:

E|--17-17-17-17-17-17-17-17-17-17-17-17-17-17--|
B|--17-17-17-17-17-17-17-17-17-17-17-17-17-17--|
G|---------------------------------------------|
D|---------------------------------------------|
A|---------------------------------------------|
E|---------------------------------------------|

(Esse RIFF Yves faz durante algumas partes da próxima estrofe)


     A5          G5         D5             C5
Ter carro do ano, TV a cores, pagar imposto, ter pistolão,
     A5             G5              D5                C5
Ter filho na escola, férias na Europa, conta bancária, comprar feijão,   (RIFF)
     A5         G5               D5              C5
Ser responsável, cristão convicto, cidadão modelo, burguês padrão..  (RIFF)

(a estrofe seguinte repete 2x)
      A                       G5
Você tem que passar no vestibular                 (RIFF)
     D5                       C
Você tem que passar no vestibular

Refrão:
"Não saco nada de Física
 Literatura ou Gramática.."
(repete a sequência em cada verso)

E|------------------------------|
B|------------------------------|
G|--------------9/7-------------|
D|--4-4-4-4-----9/7-------------|
A|--4-4-4-4-----7/5-------------|
E|--2-2-2-2---------------------|


"Só gosto de Educação Sexual.."

E|-------------------------|
B|-------------------------|
G|------------5-5-5-5------|
D|--5-5-5-5---5-5-5-5------|
A|--5-5-5-5---3-3-3-3------|
E|--3-3-3-3----------------|


"E eu odeio Química Química Química.."

E|--------------------------------------------------------------------|
B|--------------------------------------------------------------------|
G|--10-10-10-10/9-9-9-9/7-7-7-7/5-5-5-5/4-4-4-4/9-9-9-9-9-------------|
D|--10-10-10-10/9-9-9-9/7-7-7-7/5-5-5-5/4-4-4-4/9-9-9-9-9-------------|
A|--8--8--8--8/-7-7-7-7/5-5-5-5/3-3-3-3/2-2-2-2/7-7-7-7-7-------------|
E|--------------------------------------------------------------------|
Compositor Renato Russo
Colaboración y revision:
51 reproducciones
    • ½ Tom
    • A
    • Bb
    • B
    • C
    • Db
    • D
    • Eb
    • E
    • F
    • F#
    • G
    • Ab
  • Adicionar à lista

    0 comentarios

    Mostrar mais comentários

    ¿Conseguiste tocar?

    4 Tocaron 0 Ainda não

    Grave um vídeo tocando Química e mande pra gente!

    00:00 / 00:00
    outros vídeos desta música
    repetir qualidade Automático
    Outros vídeos desta música
    00:00 / 00:00
    Automático
    OK