Cifra Club

Aprenda

Todas As Noites

Capital Inicial

Tab de bajo: Principal
(VERSÃO ESTÚDIO)



  RIFF PRINCIPAL:

G |-------------------------------------|
D |-------------------------4---5---7---|
A |--------------2-3-5-5--5---5---7-----|
E |---5-5--5-3-3------------------------|



  VARIAÇÃO DO RIFF PRINCIPAL: 
  (ele toca antes de começar a cantar e antes do refrão)

G |------------------------------------|
D |------------------------------------|
A |--------------2-3-5-5-3-3-2-2-0-0---|
E |---5-5--5-3-3-----------------------|



  REFRÃO:

G |---------------------------------|
D |---------------------------------|
A |---3-3--3--------1-1--1----------|
E |----------3-3--3--------1-1--1---|


  Basicamente é isso aí galera! 

  Sexo, Álcool e Rock'n'Roll!!!



  Tablatura para Baixo por Pancreas Psicopata.
  Duvidas e comentarios: pancreaspsico@uol.com.br

  


_______________________________________________________
Contribuição: pancreas psicopata(pancreaspsico@uol.com.br)
Composição de Alvin L. / Bozzo Barretti / Dinho Ouro Preto
33 reproducciones

0 comentarios

Ver todos os comentários
00:00 / 00:00
outros vídeos desta música
repetir qualidade Automático
Outros vídeos desta música
00:00 / 00:00
Automático
OK