Cifra Club

Aprenda

Veraneio Vascaína

Capital Inicial

Tab de bajo: Principal
(intro 4x)
G-----------------------
D-----------------------
A---2-2-2-0-3-3-2-2-2--- 
E-----------------------

(riff 1) 
G--------------------- cuidado pessoal lá vem vindo a veraneio
D---------------------
A---2-2-3-3-0-0-2-2--- toda pintada de preto branco cinza e vermelho
E---------------------

(riff 2) 
G-------------------------------------
D---2-2-3-3-0-0-2-2--- --------------com número de lado, denro dois ou tres tarados
A-------------------2-2-3-3-0-0-2-2--assasinos armados e uniformizados
E------------------------------------

(refrão) 
G-------------------------------------
D-------------------------------------veraneio vascaina
A-------------------3-3-3-3-5-5-5-5--- vem dobrando a esquina
E---3-3-3-3-5-5-5-5-------------------

G-----------------------
D-----------------------
A---2-2-2-0-3-3-2-2-2---  (4x)
E-----------------------

G--------------------- 
D--------------------- por que pobre quando nasce com estinto assino
A---2-2-3-3-0-0-2-2--- sabe o que vei ser quando crescer desde menino
E---------------------

G---------------------------------
D---2-2-3-3-0-0-2-2----------------ladrão vai robar , marginal pra matar
A----------------------------------
E-------------------3-3-3--5-5-5-5-5 papai que quero ser policial quando crescer

G-----------------------
D-----------------------
A---2-2-2-0-3-3-2-2-2---  (4x)
E-----------------------

G--------------------- cuidado pessoal lá vem vindo a veraneio
D---------------------
A---2-2-3-3-0-0-2-2--- toda pintada de preto branco cinza e vermelho
E---------------------

G-------------------------------------
D---2-2-3-3-0-0-2-2--- --------------com número de lado, denro dois ou tres tarados
A-------------------2-2-3-3-0-0-2-2--assasinos armados e uniformizados
E------------------------------------

(refrão) 
G-------------------------------------
D-------------------------------------veraneio vascaina
A-------------------3-3-3-3-5-5-5-5--- vem dobrando a esquina
E---3-3-3-3-5-5-5-5-------------------

G--------------------- 
D--------------------- se eles vier com fogo em cima é melhor sair da frente
A---2-2-3-3-0-0-2-2--- tanto faz, ninguem se importa se você é inocente
E---------------------

G---------------------------------
D---2-2-3-3-0-0-2-2----------------com uma arma na mão eu boto fogo no pais
A----------------------------------
E-------------------3-3-3--5-5-5-5-5 e não vai ter problema eu sei, estou do lado da lei

G-----------------------
D-----------------------
A---2-2-2-0-3-3-2-2-2--- (4x)
E-----------------------

G--------------------- cuidado pessoal lá vem vindo a veraneio
D---------------------
A---2-2-3-3-0-0-2-2--- toda pintada de preto branco cinza e vermelho
E---------------------

G-------------------------------------
D---2-2-3-3-0-0-2-2--- --------------com número de lado, denro dois ou tres tarados
A-------------------2-2-3-3-0-0-2-2--assasinos armados e uniformizados
E------------------------------------

(refrão) 
G-------------------------------------
D-------------------------------------veraneio vascaina
A-------------------3-3-3-3-5-5-5-5--- vem dobrando a esquina
E---3-3-3-3-5-5-5-5-------------------
Compositor Renato Russo
Colaboración y revision:
  • Pedro Henrique
50 reproducciones

0 comentarios

Mostrar mais comentários

¿Conseguiste tocar?

14 Tocaron 0 Ainda não

Grave um vídeo tocando Veraneio Vascaína e mande pra gente!

00:00 / 00:00
outros vídeos desta música
repetir qualidade Automático
Outros vídeos desta música
00:00 / 00:00
Automático
OK