Cifra Club

Retrovisor

Caramelos De Cianuro

Chords: Versão 2 (acoustic and electric guitars)
tone: F
E|-------5-------------------5------------8-----------------5---------------|
B|---6-------------6-----5------------6-----------6-----5-------------------|
G|-5---5-------5/7---| 5----5-------7---7-------7---7-5----5-----------------|
D|--------------------------------------------------------------------------|
A|--------------------------------------------------------------------------|
E|--------------------------------------------------------------------------|


Rift de Estrofa (El Rift del intro y las estrofas es igual)

E|-------5-------------------5------------8-----------------5---------------|
B|---6-------------6-----5------------6-----------6-----5-------------------|
G|-5---5-------5/7---| 5----5-------7---7-------7---7-5----5-----------------|
D|--------------------------------------------------------------------------|
A|--------------------------------------------------------------------------|
E|--------------------------------------------------------------------------|



Creo que no es bueno llevar el pasado
De compañero en el puesto de al lado
Algunos dicen que la vida es un viaje
Será mejor disfrutar del paisaje


Coro:

F           A#     Am           Dm
A todos nos gusta mirar hacia atrás
            C      A#     F
Pero yo escojo no verte más
           A#      Am        Dm
Me voy buscando una suerte mejor
           C         A#
Voy a arrancar el retrovisor


Rift(X2):
E|-------5-------------------5------------8-----------------5---------------|
B|---6-------------6-----5------------6-----------6-----5-------------------|
G|-5---5-------5/7---| 5----5-------7---7-------7---7-5----5-----------------|
D|--------------------------------------------------------------------------|
A|--------------------------------------------------------------------------|
E|--------------------------------------------------------------------------|

Rift Estrofa:
E|-------5-------------------5------------8-----------------5---------------|
B|---6-------------6-----5------------6-----------6-----5-------------------|
G|-5---5-------5/7---| 5----5-------7---7-------7---7-5----5-----------------|
D|--------------------------------------------------------------------------|
A|--------------------------------------------------------------------------|
E|--------------------------------------------------------------------------|

He visto que es muy común en la gente
Tener dos veces el mismo accidente
Por experiencia se que algunas veces
Estas más cerca de lo que pareces



Coro (X2):

F           A#     Am           Dm
A todos nos gusta mirar hacia atrás
            C      A#     F
Pero yo escojo no verte más
           A#      Am        Dm
Me voy buscando una suerte mejor
           C         A#
Voy a arrancar el retrovisor



Bridge:

C             A#                     F
Y se apagó la luz que corta el horizonte
        Dm                      Am
Frente a mi el atardecer se esconde
         A#        F
Y no me puedo detener
                          C
Y Correr, y correr, y correr
             A#                   F
Se que no conozco el final de la vía
        Dm              Am
Ni que trae cada nuevo día
          A#       F
No me pienso devolver



Rift Estrofa
E|-------5-------------------5------------8-----------------5---------------|
B|---6-------------6-----5------------6-----------6-----5-------------------|
G|-5---5-------5/7---| 5----5-------7---7-------7---7-5----5-----------------|
D|--------------------------------------------------------------------------|
A|--------------------------------------------------------------------------|
E|--------------------------------------------------------------------------|


Sé que no es bueno llevar el pasado
De compañero en el puesto de al lado
Algunos dicen que la vida es un viaje
Será mejor disfrutar del paisaje


Coro(X2):

F           A#     Am           Dm
A todos nos gusta mirar hacia atrás
            C      A#     F
Pero yo escojo no verte más
           A#      Am        Dm
Me voy buscando una suerte mejor
           C         A#
Voy a arrancar el retrovisor


Outro (X4):

(F - Gm - Dm - Am - A# - Gm)

F
00:00 / 00:00
Other videos of this song
Repeat
Other videos of this song
Composed by F-B
21 views
    • ½ Tone
    • A
    • Bb
    • B
    • C
    • Db
    • D
    • Eb
    • E
    • F
    • F#
    • G
    • Ab
  • Add to list
    00:00 / 00:00
    OK