Cifra Club

Retrovisor

Caramelos De Cianuro

Cifrado: Versão 3 (guitarra y guitarra eléctrica)
tono: Dm
Intro
E|--------------------------------------------|
B|--------------------------------------------|
G|-------------------5-5-5-5/3-3-3------------|
D|-8-8-8-8/7-7-7-----5-5-5-5/3-3-3------------|
A|-8-8-8-8/7-7-7-----3-3-3-3/1-1-1------------|
E|-8-8-8-8/7-7-7------------------------------|

Versos: igual que el intro

E|--------------------------------------------|
B|--------------------------------------------|
G|-------------------5-5-5-5/3-3-3------------|
D|-8-8-8-8/7-7-7-----5-5-5-5/3-3-3------------|
A|-8-8-8-8/7-7-7-----3-3-3-3/1-1-1------------|
E|-8-8-8-8/7-7-7------------------------------|


Coro:

E|--------------------------------------------|
B|--------------------------------------------|
G|--------3-3-3-3-3--2-2-2-2------------------|
D|-3-3-3--3-3-3-3-3--2-2-2-2------------------|
A|-3-3-3--1-1-1-1-1--0-0-0-0------------------|
E|-3-3-3--------------------------------------|

E|---------------------------------------------|
B|---------------------------------------------|
G|--------5-5-5-5--3-3-3-3-3-------------------|
D|--0-0-0-5-5-5-5--3-3-3-3-3-------------------|
A|--0-0-0-3-3-3-3--1-1-1-1-1-------------------|
E|--0-0-0--------------------------------------|

Intermedio:

E|----------------------------------------------|
B|----------------------------------------------|
G|-5-5-5-5--3-3-3-3-----------------------------|
D|-5-5-5-5--3-3-3-3--3-3-3-3--5-5-5-5-----------|
A|-3-3-3-3--1-1-1-1--3-3-3-3--5-5-5-5-----------|
E|-------------------3-3-3-3--5-5-5-5-----------|

E|----------------------------------------------|
B|----------------------------------------------|
G|-2-2-2-2--3-3-3-3-----------------------------|
D|-2-2-2-2--3-3-3-3--3-3-3-3--0-33-0-33-0-------|
A|-0-0-0-0--1-1-1-1--3-3-3-3--0-33-0-33-0-------|
E|-------------------3-3-3-3--0-33-0-33-0-------|
00:00 / 00:00
Otros videos de esta canción
Repetir
Otros videos de esta canción
Composición de F-B
18 exhibiciones
    • ½ Tono
    • Am
    • Bbm
    • Bm
    • Cm
    • C#m
    • Dm
    • Ebm
    • Em
    • Fm
    • F#m
    • Gm
    • G#m
  • Agregar a la lista
    00:00 / 00:00
    OK