Cifra Club

Sanitarios

Caramelos De Cianuro

Cifrado: Principal (guitarra y guitarra eléctrica)
tono: G
Intro I:


E|---------------------------------------|
B|---------------------------------------|
G|---------------------------------------|
D|---------------------5---5---5---------|
A|-----5---5---5---3-3---3---3---3-------|
E|-3-3---3---3---3-----------------------|

E|---------------------------------------|
B|---------------------------------------|
G|---------------------------------------|
D|---------------------------------------|
A|-----7---7---7---7---7---7-------------|
E|-5-5---5---5---5---5---5---------------|
  …………p.m…………p.m ……p.m………p.m……….


Intro II: (distorsión)

     G5      C5         A5
E|---------------------------------------|
B|---------------------------------------|
G|----------5-5-5-5----------------------|
D|-5-5-5-5--5-5-5-5--7-7-7-7-7-7---------|
A|-5-5-5-5--3-3-3-3--7-7-7-7-7-7---------|
E|-3-3-3-3-----------5-5-5-5-5-5---------|
                     …………p.m……….

E|----------------------------------------------------------------|
B|----------------------------------------------------------------|
G|---------------7-7-7-7-9-9-9-9----------------------------------|
D|--9-9-9-9-9-9---------------------------------------------------|
A|-------------------------------9-9-9-9-9-9-12-12-12-10-10-10-9-9|
E|----------------------------------------------------------------|

Verso I

Riff1

     G5      C5           A5
E|------------------3----------------------|
B|------------------x----------------------|
G|----------5-5-5-5----------------------|
D|-5-5-5-5--5-5-5-5----7-7-7-7-7-7---------|
A|-5-5-5-5--3-3-3-3----7-7-7-7-7-7---------|
E|-3-3-3-3-------------5-5-5-5-5-5---------|
  …………p.m……………p.m      ……p.m……….…………p.m……….





Riff 2

     G5      C5            A5
E|------------------3-----------------7-8--|
B|------------------x---------------8-x-x--|
G|----------5-5-5-5------------------------|
D|-5-5-5-5--5-5-5-5----7-7-7-7-7-7---------|
A|-5-5-5-5--3-3-3-3----7-7-7-7-7-7---------|
E|-3-3-3-3-------------5-5-5-5-5-5---------|
  …………p.m……………p.m      ……p.m……….……

Riff 3 (x2)
     G5      C5         A5
E|---------------------------------------|
B|---------------------------------------|
G|----------5-5-5-5----------------------|
D|-5-5-5-5--5-5-5-5--7-7-7-7-7-7---------|
A|-5-5-5-5--3-3-3-3--7-7-7-7-7-7---------|
E|-3-3-3-3-----------5-5-5-5-5-5---------|
                     …………p.m……….

Coro


     G5      C5          A5
E|---------------------------------------|
B|---------------------------------------|
G|----------5-5-5-5----------------------|
D|-5-5-5-5--5-5-5-5--7-7-7-7-7-7---------|
A|-5-5-5-5--3-3-3-3--7-7-7-7-7-7---------|
E|-3-3-3-3-----------5-5-5-5-5-5---------|

Verso II

Riff1

     G5      C5            A5
E|------------------3----------------------|
B|------------------x----------------------|
G|----------5-5-5-5----------------------|
D|-5-5-5-5--5-5-5-5----7-7-7-7-7-7---------|
A|-5-5-5-5--3-3-3-3----7-7-7-7-7-7---------|
E|-3-3-3-3-------------5-5-5-5-5-5---------|
  …………p.m……………p.m      ……p.m……….…………p.m……….





Riff 2

     G5      C5            A5
E|------------------3-----------------7-8--|
B|------------------x---------------8-x-x--|
G|----------5-5-5-5------------------------|
D|-5-5-5-5--5-5-5-5----7-7-7-7-7-7---------|
A|-5-5-5-5--3-3-3-3----7-7-7-7-7-7---------|
E|-3-3-3-3-------------5-5-5-5-5-5---------|
  …………p.m……………p.m      ……p.m……….……

Riff 3 (x2) al mismo tiempo con el riff 4
     G5      C5          A5
E|---------------------------------------|
B|---------------------------------------|
G|----------5-5-5-5----------------------|
D|-5-5-5-5--5-5-5-5--7-7-7-7-7-7---------|
A|-5-5-5-5--3-3-3-3--7-7-7-7-7-7---------|
E|-3-3-3-3-----------5-5-5-5-5-5---------|
                     …………p.m……….
riff 4 (x2)
E|-----17-15----17-15---17-15---17b18-17--|
B|--15-------15-------15------15----------|
G|----------------------------------------|
D|----------------------------------------|
A|----------------------------------------|
E|----------------------------------------|

Coro

     G5      C5            A5
E|---------------------------------------|
B|---------------------------------------|
G|----------5-5-5-5----------------------|
D|-5-5-5-5--5-5-5-5--7-7-7-7-7-7---------|
A|-5-5-5-5--3-3-3-3--7-7-7-7-7-7---------|
E|-3-3-3-3-----------5-5-5-5-5-5---------|

E|----------------------------------------------------------------|
B|----------------------------------------------------------------|
G|---------------7-7-7-7-9-9-9-9----------------------------------|
D|--9-9-9-9-9-9---------------------------------------------------|
A|-------------------------------9-9-9-9-9-9-12-12-12-10-10-10-9-9|
E|----------------------------------------------------------------|





Última estrofa
Riff 5 (x2)
E|----------------------------------------------|
B|----------------------------------------------|
G|-4-4-4-4-----------7-7-7-7-7-7----------------|
D|-4-4-4-4--5-5-5-5--7-7-7-7-7-7---7-7-7-7------|
A|-2-2-2-2--5-5-5-5--5-5-5-5-5-5---7-7-7-7------|
E|----------3-3-3-3----------------5-5-5-5------|

E|----------------------------------------------|
B|----------------------------------------------|
G|-4-4-4-4--5-5-5-5------5-5-----5-5-5-5--------|
D|-4-4-4-4--5-5-5-5--5-5-5-5-5-5-5-5-5-5--------|
A|-2-2-2-2--3-3-3-3--5-5-3-3-5-5-3-3-3-3--------|
E|-------------------3-3-----3-3----------------|

Riff 6 (x2)al mismo tiempo con el riff 7
E|----------------------------------------------|
B|----------------------------------------------|
G|-4-4-4-4--5-5-5-5----------7-7-7-7-7-------|
D|-4-4-4-4--5-5-5-5--5-5-5-5-5-5-5-5-5---------|
A|-2-2-2-2--3-3-3-3--5-5-5-5-5-5-5-5-5---------|
E|-------------------3-3-3-3----------------|
  …………p.m……………p.m…………………….……p.m……….…………p.m……….

E|----------------------------------------------|
B|----------------------------------------------|
G|-4-4-4-4--5-5-5-5------5-5-----5-5-5-5--------|
D|-4-4-4-4--5-5-5-5--5-5-5-5-5-5-5-5-5-5--------|
A|-2-2-2-2--3-3-3-3--5-5-3-3-5-5-3-3-3-3--------|
E|-------------------3-3-----3-3----------------|
…………p.m……………p.m……………

Riff 7 (x2)
E|-----10vv-------------------------------|
B|--10vv----10vv-7-8----------------------|
G|----------------------------------------|
D|----------------------------------------|
A|----------------------------------------|
E|----------------------------------------|

Y no tengo que hablar y no tienes que hablar
Por una media noche mágica cuanto te atreves
arriesgar
Se que tienes tu vida muy lejos de la mía
Y que esto es sólo un momento nada más
Si parpadeas ya no esta


Coro

     G5      C5          A5
E|---------------------------------------|
B|---------------------------------------|
G|----------5-5-5-5----------------------|
D|-5-5-5-5--5-5-5-5--7-7-7-7-7-7---------|
A|-5-5-5-5--3-3-3-3--7-7-7-7-7-7---------|
E|-3-3-3-3-----------5-5-5-5-5-5---------|

E|----------------------------------------------------------------|
B|----------------------------------------------------------------|
G|---------------7-7-7-7-9-9-9-9----------------------------------|
D|--9-9-9-9-9-9---------------------------------------------------|
A|-------------------------------9-9-9-9-9-9-12-12-12-10-10-10-9-9|
E|----------------------------------------------------------------|

Final
E|---------------------|
B|---------------------|
G|---------------------|
D|---------------------|
A|-9-9-10-10-9-9-10-10-|
E|---------------------|
00:00 / 00:00
Otros videos de esta canción
Repetir
Otros videos de esta canción
Compositor no encontrado.
250 exhibiciones
    • ½ Tono
    • A
    • Bb
    • B
    • C
    • Db
    • D
    • Eb
    • E
    • F
    • F#
    • G
    • Ab
  • Agregar a la lista
    00:00 / 00:00
    OK