Cifra Club

Verano

Caramelos De Cianuro

Cifrado: Principal (guitarra y guitarra eléctrica)
tono: C
1|------------------------------| [--- esta es la version
2|------------------------------|      del bajo...
3|------------------------------|
4|------2-------3---------------|
5|--3-3---3-5-5---5-----3---3---|
6|------------------5-5---5---5-|


Intro: Riff Guitarra.

1|-------------------12---------
2|----------------13------------
3|---------5-9-12---------------
4|----2-3-----------------------
5|------------------------------
6|------------------------------

Verso:

Iluminada madrugada luces
del horizonte
donde aprendimos del amor,
juntos en un mirador
recuerda bien el sitio donde tú creciste
Porque ahora esa ciudad Ya no existe…
1|-------------------12---------
2|----------------13------------
3|---------5-9-12---------------  x3
4|----2-3-----------------------
5|------------------------------
6|------------------------------

Precoro:

Ahora tu vista me arrastra, me agarra,
Me amarra y me castra..
1|------------------------------
2|------------------------------
3|----------10-9--12b13r12------
4|----2-3-5---------------------
5|------------------------------
6|------------------------------

Coro:
                  G
Y este maldito verano
                         C
que me tiene dolidas las manos
                       G
en mi cama sudando por ti
               C
Yo no pienso vivir
F                     G
pues son los mismos engaños
                              Am
que ahora se detectar con los años
                           D   F
y la dura lección que aprendí,
            G#            C
es que no espero más por ti.

Verso:

Nos despertamos en la playa
entre Viviana y Nirvana
la noche en que te di el reloj
1  9  9  2
recuerdo que la arena no era tan oscura
ni que tu voluntad no era tan dura
1|-------------------12---------
2|----------------13------------
3|---------5-9-12---------------  x3
4|----2-3-----------------------
5|------------------------------
6|------------------------------

Precoro:

ahora tus ojos perforan
confunden me hunden, me ignoran…
1|------------------------------
2|------------------------------
3|----------10-9--12b13r12------
4|----2-3-5---------------------
5|------------------------------
6|------------------------------

Coro:
                G
Y este maldito verano
                         C
que me tiene dolidas las manos
                       G
en mi cama sudando por ti
               C
Yo no pienso vivir
F                     G
pues son los mismos engaños
                              Am
que ahora se detectar con los años
                           D  F
y la dura lección que aprendí,
            G#           A#
es que no espero más por ti.

 A#                       C#
No sé porque te veo en sueños
            F              G#
en blanco y negro como los perros
                       C
ni porque despierto temblando
                     G
Si es el medio del verano…
                         C
que me tiene dolidas las manos
                       G
en mi cama sudando por ti
               C
Yo no pienso vivir
F                     G
pues son los mismos engaños
                              Am
que ahora se detectar con los años
                           D   F
y la dura lección que aprendí,
            G#           C
es que no espero más por ti.

Saludos desde Venezuela..
00:00 / 00:00
Otros videos de esta canción
Repetir
Otros videos de esta canción
Compositor no encontrado.
Colaboración y revisión:
  • Andrew Lovegood
320 exhibiciones
    • ½ Tono
    • A
    • Bb
    • B
    • C
    • Db
    • D
    • Eb
    • E
    • F
    • F#
    • G
    • Ab
  • Agregar a la lista
    00:00 / 00:00
    OK