Cifra Club

Veterana

Caramelos De Cianuro

Cifrado: Principal (guitarra y guitarra eléctrica)
tono: B
intro:
(comienzan los punteos del bajo)

A|-------7-7----| (repite esto hasta que la estrofa lo indique).
E|-7-7-5-----5--|


 Estrofas:

   B5*    A5   E5*
E|------------------| |
B|------------------| |
G|-------------9-9--| |(Este es el mismo ritmo del bajo pero con acordes).
D|-9-9----7----9-9--| |
A|-9-9----7----7-7--| |
E|-7-7----5---------| |

 Coro:

  B5        A5*      F#5      B5     D5       A5
E|-----------------------------------------------------| |
B|-----------------------------------------------------| |
G|-4-4-4-4--2-2-2------------4-4-4-4--7-7-7------------| |
D|-4-4-4-4--2-2-2--4--4-4-4--4-4-4-4--7-7-7--7--7-7-7--| |
A|-2-2-2-2--0-0-0--4--4-4-4--2-2-2-2--5-5-5--7--7-7-7--| |
E|-----------------2--2-2-2------------------5--5-5-5--| |


Comienza el intro:

Estrofa I

A mi lo que me hace falta es una hembra de verdad,

maestra consumada en la estimulacion oral,

que fume, beba y me haga el amor mientras menejo,

pues menos sabe el diablo por diablo que por viejo,
       B5*     A5  E5*  B5*         A5   E5*
estoy harto de las niñas con ojitos de cordero
B5*          A5  E5*         B5*      A5  E5*
que me miran asustadas si las llevo al matadero
      B5*        A5   E5*       B5*      A5  E5*
ahora mas que una mujer estoy buscando a lucifer
    B5*          A5 E5*         B5*           A5  E5*
con tacones transparentes y mi carne entre sus dientes.

Coro:
   B5          A5*         F#5
Formaras amigo mio asi tu propia opinion
          B5            D5           A5
pues discutir contigo no es mi intencion,
         B5         A5*      F#5
y si la vida te procura una mujer madura
           B5         D5          A5
se que entonces sabras que hablo con la verdad.

Estrofa II

El problema es que hoy en dia nadie aprecia la experiencia

y el amor bien practicado mas que un arte es una ciencia

quiero una buena profesora de la cual pueda aprender

los secretos que celosamente guarda la mujer,
       B5*      A5 E5*   B5*          A5 E5*
me incomodan si se creen demasiado inteligentes
B5*                    A5 E5*    B5*           A5  E5*
pues siempre dicen lo que piensan pero nunca lo que sienten,
B5*             A5  E5*     B5*          A5 E5*
las prefiero mas modestas y con cuerpo de sirena
B5*          A5  E5*          B5*      A5  E5*
es el tipo de mujer que de verdad vale la pena.

(se repite el coro y luego viene esto)...

       B5              A5*         F#5
Y tu diras que lo que busco es un amor maternal
        B5          D5      A5
y no me vengas a psicoanalizar...
           B5           A5*        F#5
quiero que sea toda una dama menos en la cama
       B5             D5         A5
que me muerda, que me arañe, que mienta que me engañe y demas..


Solo:(Este solo lo saque en guitarra acustica, asi que si le falta algo
o alguna correccion haganmelo saber)

E|---------------------------------------------|
B|---------------------------------------------|
G|---------------------------------------------|
D|---------------------------------------------|
A|-5-7-7s9-7-5----5-7-7s9-7-5----5-7-7s9-7-5---|
E|--------------7--------------7-------------7-|

E|----------------------------------|
B|----------------------------------|
G|---------7-------9-7--------------|
D|-5s7-8-9---9-7-9-----9-7------7-9-|
A|-------------------------9s10-----|
E|----------------------------------|

E|-----------------------------------------------|
B|-----------------------------------------------|
G|---------------------------------------------8-|
D|---------------8-8h10-10-8-8h10-10-8-8h10-10---|
A|-7-8-10----------------------------------------|
E|--------7-8-10---------------------------------|

E|---------------------------------|
B|---------------------------------|
G|---------9---------10---------8--|
D|-8h10-10---9h11-11----8h10-10----|
A|---------------------------------|
E|---------------------------------|

E|------------------------------------------------------7-9-10v-| |
B|----------------------------------------------8-10-11---------| |
G|---------9---10s11-10-9-7--------------7-9-10-----------------| |
D|-8h10-10---9--------------9-7-9--7-9-7------------------------| |
A|--------------------------------------------------------------| |
E|--------------------------------------------------------------| |

(se vuelve a repetir el coro y la otra parte, y luego viene esto)..

      B5*      A5 E5*        B5*     A5 E5*
Es la tecnica que aflora de tu boca pecadora
      B5*        A5  E5*          B5*     A5  E5*
es la intensidad que emana de tus manos veteranas
     B5*        A5  E5*       B5*       A5  E5*
a tu lado yo he podido ver la luz de la verdad
        B5*          A5  E5*         B5*        A5 E5*
pues me has hecho comprender que el amor no tiene edad
      B5*    A5  E5*         B5*         A5 E5*
las exoticas caricias que me aplicas con malicias
    B5*      A5* E5*       B5*         A5* E5*
los eroticos masajes que aprendiste en tus viajes
     B5*          A5  E5*        B5*            A5  E5*
a tu lado yo he entendido que el placer siempre es mejor
            B5*   B5*     B5*   B5*  B5* B5* B5*
cuando hay dolor, dolor, dolor dolor...          E|-8s12-|
00:00 / 00:00
Otros videos de esta canción
Repetir
Otros videos de esta canción
Composición de Azier cazalis
34 exhibiciones
    • ½ Tono
    • A
    • Bb
    • B
    • C
    • Db
    • D
    • Eb
    • E
    • F
    • F#
    • G
    • Ab
  • Agregar a la lista
    00:00 / 00:00
    OK