Cifra Club

Oi

Carbon Leaf

Cifrado: Principal (guitarra y guitarra eléctrica)
Selo Cifra Club: esta cifra foi revisada para atender aos critérios oficiais da nossa Equipe de Qualidade.
tono: Em
[Intro]
E|----------------------------------|
B|----------------------------------|
G|----------------------------------|
D|----------------------------------|
A|-0-2-3-2---0-2-0------------------|
E|-----------------3-2-0------------|
Oi!

[Verse 1]
Em          G             Em                  Bm
Rising ash, falling snow, she used to lie and adore ye
Em           G             C           D       Em
Winding long tales of woe, she used to lie and adore ye
Em          G                      Em                          Bm
Nightingale, ashen-pale, whistling tunes, yeah, the moon still adores ye
Em                  G                   C                 D             Em
Now, now, you're so young and proud, but another name for that will be 'lonely'
G              Em                Bm             Em
Pick the lock, sweep the floor, leave without a sound
      G              C Bm     Em
Just allow the empty space to heal

[Interlude]
D   C   D   C   D   C   Bm   Em
E|----------------------------------|
B|----------------------------------|
G|----------------------------------|
D|----------------------------------|
A|-0-2-3-2---0-2-0------------------|
E|-----------------3-2-0------------|
Oi!

[Verse 2]
Em                      G                 Em                     Bm
Bound in chains with a thousand rains, no wonder the storm still adores ye
Em              G                        C        D        Em
Hold me down or hold me now, screaming, "I still love and adore ye!"
Em            G                          Em                        Bm
Past the door, winter storms through the streets of your unending longings
Em              G                       C    D    Em
Flow down now to frost the ground, like cool Hallelujahs
Em                 G                 Em                  Bm
On the bridge that connects us high, high above all this torrent
Em                          G                        C       D        Em
Should you fall down, that wall of sound's howling, "I still love and adore ye!"
G              Em                Bm             Em
Pick the lock, sweep the floor, leave without a sound
      G              C Bm     Em
Just allow the empty space to heal
G              Em                Bm             Em
Pick the lock, sweep the floor, leave without a sound
      G              C Bm     Em
Just allow the empty space to heal

[Outro]
D   C   D   C   D   C   Bm   Em
E|----------------------------------|
B|----------------------------------|
G|----------------------------------|
D|----------------------------------|
A|-0-2-3-2---0-2-0------------------|
E|-----------------3-2-0------------|
Oi!
Otros videos de esta canción
    3 exhibiciones
      • ½ Tono
      • Am
      • Bbm
      • Bm
      • Cm
      • C#m
      • Dm
      • Ebm
      • Em
      • Fm
      • F#m
      • Gm
      • G#m
    • Agregar a la lista

    Afinação da cifra

    Afinador online

      Ops (: Contenido disponible solo en portugués.
      OK