Cifra Club

Recompensa

Carla e Junior

Cifrado: Principal (guitarra y guitarra eléctrica)
tono: C
Intro: Am  F  Am  F

Am                                      F
Já cansei de procurar em tudo quanto é canto
                                   C
Já rodei pela cidade, mas não encontro
                 G
Eu to ficando perdido.

Am                                      F
Aparece nos meus sonhos mas quando eu acordo
                                   C
Me deparo com a tristeza que me consome
                 G
Eu to ficando perdido.

F       Am             G
É persistente a sensação de ter você
Dm      F           G
É impossível eu deixar de te querer

 C                   G                         Am
Eu to pagando recompensa pra encontrar um coração que seja
 F                 C
Compatível ao meu
                    G                        Am
Eu to pagando um milhão pra encontrar uma paixão
        F      G          Am   G
Que me tire da solidão.

 ( C  G  Am  F  C  G  Am  F  Gm )
E|--------------------------------------------------------------------------------|
B|--8-8-5-8-8--10-8-6-5-3/6-5-3-1-----8-8-8-8-8-8/12-10-8---6-5-6-6/10-8---5--7---|
G|--------------------------------2-----------------------------------------------|
D|-------------10-9-7-5-4/6-5-4-2---------------------------3-2-3-3/7--5---8--10--|
A|--------------------------------3-----------------------------------------------|
E|--------------------------------------------------------------------------------|

Am                                      F
Aparece nos meus sonhos mas quando eu acordo
                                   C
Me deparo com a tristeza que me consome
                 G
Eu to ficando perdido.

F       Am             G
É persistente a sensação de ter você
Dm      F           G
É impossível eu deixar de te querer

  C                   G                         Am
Eu to pagando recompensa pra encontrar um coração que seja   | 2x o refrão |
 F                 C
Compatível ao meu
                    G                        Am
Eu to pagando um milhão pra encontrar uma paixão
        F      G
Que me tire da solidão.
E|--------------------|
B|--------------------|
G|----------5-6-6/8---|
D|------5-7-----------|
A|--5-7---------------|
E|--------------------|

C#                  G#                         A#m
Eu to pagando recompensa pra encontrar um coração que seja
 F#                 C#
Compatível ao meu
                    G#                        A#m
Eu to pagando um milhão pra encontrar uma paixão
        F#      G#
Que me tire da solidão.

 ( A#m )
E|-----9-|
B|-------|
G|-6h8---|
D|-------|
A|-------|
E|-------|
Compositor no encontrado.
Colaboración y revisión:
  • Danielle Moraes
25 vistas
    • ½ Tono
    • A
    • Bb
    • B
    • C
    • Db
    • D
    • Eb
    • E
    • F
    • F#
    • G
    • Ab
  • Agregar a la lista

    0 comentarios

    Ver todos los comentarios
    00:00 / 00:00
    Otros videos de esta canción
    Repetir Calidad Automático
    Otros videos de esta canción
    00:00 / 00:00
    Automático
    OK