Cifra Club

Colgando En Tus Manos

Carlos Baute

Tablatura: Principal (guitarra)
Tom: F# (con acordes en la forma de F) Capo en 1ª casa
[Intro] F  C  Dm  Bb  C

   F        C        Dm
E|-------1--------3--------5----------------|
B|-------1--------1--------6----------------|
G|-----2--------0--------7------------------|
D|---3--------2--------7--------------------|
A|----------3--------5----------------------|
E|-1----------------------------------------|

   Bb       C 
E|------------------------------------------|
B|-----3--------5---------------------------|
G|-------3--------5-------------------------|
D|---3--------5-----------------------------|
A|-1--------3-------------------------------|
E|------------------------------------------|

[Primeira Parte]

   F        C        Dm
E|-------1--------3--------5----------------|
B|-------1--------1--------6----------------|
G|-----2--------0--------7------------------|
D|---3--------2--------7--------------------|
A|----------3--------5----------------------|
E|-1----------------------------------------|

   Bb       C 
E|------------------------------------------|
B|-----3--------5---------------------------|
G|-------3--------5-------------------------|
D|---3--------5-----------------------------|
A|-1--------3-------------------------------|
E|------------------------------------------|

F                     C                     Dm
  Quizá no fue coincidencia encontrarme contigo
        Bb       C          F
Tal vez esto lo hizo el destino
           C                    Dm
Quiero dormirme de nuevo en tu pecho
       Bb        C              F
Y después me despierten tus besos

[Segunda Parte]

             C             Dm
Tu sexto sentido sueña conmigo
         Bb        C      F
Sé que pronto estaremos unidos
                C                 Dm
Esa sonrisa traviesa que vive conmigo
         Bb        C          Dm
Sé que pronto estaré en tu camino

[Pré-Refrão]

                  C              Bb
Sabes q estoy colgando en tus manos
       F       C    Dm
Así q no me dejes caer
          C     Bb     F              C
Sabes que estoy    colgando en tus manos

[Refrão]

F            C                  Gm
  Te envió poemas de mi puño y letra
             Bb                    F
Te envió canciones de quatro y cuarenta
              C                   Gm
Te envió las fotos cenando en Marbella
              Bb             F
Y cuando estuvimos por Venezuela
             C                  Gm
Y así me recuerdes y tengas presente
            Bb                       F
Que mi corazón esta colgando en tus manos
        C       Dm             Bb                       F
Cuidado, cuidado   que mi corazón esta colgando en tus manos

( C  Dm  Bb  C )

[Primeira Parte]

F                    C                  Dm
  No perderé la esperanza de hablar contigo
         Bb        C          F
No me importa que dice el destino
          C                   Dm
Quiero tener tu fragancia conmigo
     Bb       C          Dm
Y beberme de ti lo prohibido

[Pré-Refrão]

Dm                C            Bb
Sabes q estoy colgando en tus manos
       F       C    Dm
Así q no me dejes caer
          C     Bb     F              C
Sabes que estoy    colgando en tus manos

[Refrão]

F            C                  Gm
  Te envió poemas de mi puño y letra
             Bb                    F
Te envió canciones de quatro y cuarenta
F             C                   Gm
Te envió las fotos cenando en Marbella
              Bb             F
Y cuando estuvimos por Venezuela
                 C                  Gm
Y así así me recuerdes y tengas presente
            Bb                       F
Que mi corazón esta colgando en tus manos
        C         Dm
Cuidado,  cuidado
                  Bb                     F
Marta, yo te digo,   me tienes en tus manos
        C
Cuidado,  mucho cuidado
         Gm                   Bb
No me importa que diga el destino
             F
Quédate conmigo
        C
Cuidado,  mucho cuidado
           Gm              Bb                          F
Lo quiero todo de ti, tus lábios, tu cariño y lo prohibido

( C  Gm  Bb  F )

[Refrão]

           C                  Gm
Te envió poemas de mi puño y letra
             Bb                    F
Te envió canciones de quatro y cuarenta
F             C                   Gm
Te envió las fotos cenando en Marbella
              Bb             F
Y cuando estuvimos por Venezuela
             C                  Gm
Y así me recuerdes y tengas presente
            Bb                       F
Que mi corazón esta colgando en tus manos
        C       Dm             Bb                       F
Cuidado, cuidado   que mi corazón esta colgando en tus manos
            C                        Dm
Que mi corazón esta colgando en tus manos
            Bb          C            F
Que mi corazón esta colgando en tus manos
reproducciones 18.715
Acordes para:

    0 comentarios

    mostrar más comentarios

    ¿Conseguiste tocar?

    4 tocaron 1 aún no

    ¡Graba un vídeo tocando Colgando En Tus Manos y envianoslo!

    00:00 / 00:00
    outros vídeos desta música
    repetir qualidade Automático
    Outros vídeos desta música
    00:00 / 00:00
    Automático
    OK