Cifra Club

Guillermo Tell

Carlos Varela

Cifrado: Principal (guitarra y guitarra eléctrica)
tono: Em

Intro:
E|-------5h3----|-------5h3----|---------3----|-------5h3----|
B|----5-------5-|----5-------5-|----5-------5-|----5-------5-|
G|-4------------|-5------------|-6------------|-5------------|
D|--------------|--------------|--------------|--------------|
A|--------------|--------------|--------------|--------------|
E|--------------|--------------|--------------|--------------|

E|-------5h3----|--------3-----|-------2------|-------2------|
B|----5-------5-|----2------2--|----4------4--|----4------4--|
G|-4------------|-3------------|-4------------|-4------------|
D|--------------|--------------|--------------|--------------|
A|--------------|--------------|--------------|--------------|
E|--------------|--------------|--------------|--------------| Bis



Em/B     Cmaj7    Em/C#          Cmaj7
Guillermo Tell no comprendió a su hijo
       Em     A#dim7           B7         B7/F#
que un día se aburrió de la manzana en la cabeza.
Em/B     Cmaj7    Em/C#      Cmaj7
Echo a correr y el padre lo maldijo
       Em             A#dim7       B7       B7/F#
pues, cómo, entonces, iba a probar su destreza

Em/B     Cmaj7    Em/C#   Cmaj7
Guillermo Tell tu hijo creció.
Em     A#dim7   B7       B7/F#
Quiere tirar la flecha.
Em/B     Cmaj7  Em/C#   Cmaj7
Le toca a él probar su valor
Em     A#dim7 B7    B7/F#
usando tu ballesta.

Guillermo Tell no comprendió el empeño
pues, quién se iba a arriesgar al tiro de esa flecha.
Y se asustó cuando dijo el pequeño:
“Ahora le toca al padre la manzana en la cabeza.”

Guillermo Tell tu hijo creció.
Quiere tirar la flecha.
Le toca a él probar su valor
usando tu ballesta.

SUBE UN TONO (C S TRASTES)

Guillermo Tell no le gustó la idea
y se negó a ponerse la manzana en la cabeza
diciendo que no era que no creyera
pero que iba a pasar si sale mal la flecha


Guillermo Tell tu hijo creció.
Quiere tirar la flecha.
Le toca a él probar su valor
usando tu ballesta.

Guillermo Tell no comprendió a su hijo
que un día se aburrió de la manzana en la cabeza.

    Em/C#     B7/F#
E|-----x----|----2---|
B|-----0----|----0---|
G|-----0----|----2---|
D|-----2----|----1---|
A|-----4----|----0---|
E|-----x----|----2---|
00:00 / 00:00
Otros videos de esta canción
Repetir
Otros videos de esta canción
Composición de Carlos Varela
4 vistas
    • ½ Tono
    • Am
    • Bbm
    • Bm
    • Cm
    • C#m
    • Dm
    • Ebm
    • Em
    • Fm
    • F#m
    • Gm
    • G#m
  • Agregar a la lista

    0 comentarios

    Ver todos los comentarios

    ¿Lograste tocar?

    0 Tocaron 0 Aún no

    ¡Graba un video tocando Guillermo Tell y envíanoslo!

    00:00 / 00:00
    OK