Cifra Club

Aprenda

I Really Like You

Carly Rae Jepsen

Tablatura: Principal (guitarra)
tono: F
Introdução: Bb  F  C  Dm7
   
   Bb   F    C    Dm7
E|------------------------------------------|
B|-3----1----1----6-------------------------|
G|-3----2----0----5-------------------------|
D|-3----3----2----3-------------------------|
A|-1---------3----5-------------------------|
E|------1-----------------------------------|

Primeira Parte:
Parte 1 de 4
   Bb
E|------------------------------------------|
B|-3---x---3--3--x--------------------------|
G|-3---x---3--3--x--------------------------|
D|-3---x---3--3--x--------------------------|
A|-1---x---1-----x--x-----------------------|
E|------------------------------------------|

Parte 2 de 4
   F
E|------------------------------------------|
B|-1---x---1--1--x--------------------------|
G|-2---x---2--2--x--------------------------|
D|-3---x---3--3--x--------------------------|
A|-----x---------x--------------------------|
E|-1-------1--------x-----------------------|

Parte 3 de 4
   C
E|------------------------------------------|
B|-1---x---1--1--x--------------------------|
G|-0---x---0--0--x--------------------------|
D|-2---x---2--2--x--------------------------|
A|-3---x---3-----x--x-----------------------|
E|------------------------------------------|

Parte 4 de 4
   C          Dm7
E|------------------------------------------|
B|-1---x---1--6--x--------------------------|
G|-0---x---0--5--x--------------------------|
D|-2---x---2--3--x--------------------------|
A|-3---x---3--5--x--x-----------------------|
E|------------------------------------------|

   Dm7           Bb
I really wanna stop
                        F
But I just got a taste for it
                      C
I feel like I could fly

With the boy on the moon
    Dm7           Bb
So honey hold my hand 
                         F
You like making me wait for it
                     C
I feel like I could die
                           Dm7
Walking up to the room, oh     yeah
 Bb                  F
Late night watching television
     C                        Dm7
But how'd we get in this position
      Bb
It's way too soon
    F              C
I know this isn't love

But I need to tell you something

Refrão:
Parte 1 de 4
   Bb
E|------------------------------------------|
B|-3-3-x---3--3--3-----x--------------------|
G|-3-3-x---3--3--3-----x--------------------|
D|-3-3-x---3--3--3-----x--------------------|
A|-1---x---1-----x--x-----------------------|
E|------------------------------------------|

Parte 2 de 4
   F
E|------------------------------------------|
B|-1-1-x---1--1--1-----x--------------------|
G|-2-2-x---2--2--2-----x--------------------|
D|-3-3-x---3--3--3-----x--------------------|
A|-----x---------x--------------------------|
E|-1-------1--------x-----------------------|

Parte 3 de 4
   C
E|------------------------------------------|
B|-1-1-x---1--1--1-----x--------------------|
G|-0-0-x---0--0--0-----x--------------------|
D|-2-2-x---2--2--2-----x--------------------|
A|-3---x---3-----x--x-----------------------|
E|------------------------------------------|

Parte 4 de 4
   C          Dm7
E|------------------------------------------|
B|-1-1-x---1--6--6----x---------------------|
G|-0-0-x---0--5--5----x---------------------|
D|-2-2-x---2--3--3----x---------------------|
A|-3---x---3--5--x--x-----------------------|
E|------------------------------------------|

Bb                            F
   I really, really, really, really
                        C
Really, really like you
     
And I want you, do you want me
                Dm7
Do you want me,     too
Bb                            F
   I really, really, really, really
                        C
Really, really like you
     
And I want you, do you want me
                Dm7
Do you want me,     too

Bb               F
Ohhh, did I say too much
          C
I'm so in   my head
                        Dm7
When we're out of touch 
Bb                            F
   I really, really, really, really
                        C
Really, really like you
     
And I want you, do you want me
                Dm7
Do you want me,     too


Repete a Primeira Parte:
                          Bb
It's like everything you say 
                F
Is a sweet revelation
             C
All I wanna do

Is get into your head
         Dm7         Bb
Yeah we could stay alone
                         F
You and me and this temptation
                 C
Sipping on your lips
                         Dm7
Hanging on by a thread, baby
 Bb                  F
Late night watching television
     C                        Dm7
But how'd we get in this position
      Bb
It's way too soon
    F              C
I know this isn't love

But I need to tell you something


Repete o Refrão:
Bb                            F
   I really, really, really, really
                        C
Really, really like you
     
And I want you, do you want me
                Dm7
Do you want me,     too
Bb                            F
   I really, really, really, really
                        C
Really, really like you
     
And I want you, do you want me
                Dm7
Do you want me,     too

Bb               F
Ohhh, did I say too much
          C
I'm so in   my head
                        Dm7
When we're out of touch 
Bb                            F
   I really, really, really, really
                        C
Really, really like you
     
And I want you, do you want me
                Dm7
Do you want me,     too


Segunda Parte:

Bb
  Who gave you eyes like that
F
  Said you could keep them
C
  I don't know how to act
                   Dm7
Or if I should be leaving
Bb
  I'm running out of time
F
  Going out of my mind
C
  I need to tell you something

Yeahhh

Repete o Refrão:

Bb                            F
   I really, really, really, really
                        C
Really, really like you
     
And I want you, do you want me
                Dm7
Do you want me,     too
Bb                            F
   I really, really, really, really
                        C
Really, really like you
     
And I want you, do you want me
                Dm7
Do you want me,     too

Bb               F
Ohhh, did I say too much
          C
I'm so in   my head
                        Dm7
When we're out of touch 
Bb                            F
   I really, really, really, really
                        C
Really, really like you
     
And I want you, do you want me
                Dm7
Do you want me,     too

Bb                            F
   I really, really, really, really
                        C
Really, really like you
     
And I want you, do you want me
                Dm7
Do you want me,     too
Bb                            F
   I really, really, really, really
                        C
Really, really like you
     
And I want you, do you want me
                Dm7
Do you want me,     too
Composição de Carly Rae Jepsen
Colaboración y revision:
  • Betweenpe Entretenimento
  • Iomar Fagundes
  • Wagner Mali
547 reproducciones
    • ½ Tono
    • A
    • Bb
    • B
    • C
    • Db
    • D
    • Eb
    • E
    • F
    • F#
    • G
    • Ab
  • Adicionar à lista

    0 comentarios

    Ver todos os comentários

    ¿Conseguiste tocar?

    1 Tocaram 0 Ainda não

    Grave um vídeo tocando I Really Like You e nos envie!

    00:00 / 00:00
    outros vídeos desta música
    repetir qualidade Automático
    Outros vídeos desta música
    00:00 / 00:00
    Automático
    Capítulos
    • Tocando a música
    • Dicas Iniciais / Equipamentos
    • Acordes da música
    • Introdução
    • Primeira Parte - Parte 1 de 4
    • Primeira Parte - Parte 2 de 4
    • Primeira Parte - Parte 3 de 4
    • Primeira Parte - Parte 4 de 4
    • Refrão - Parte 1 de 4
    • Refrão - Parte 2 de 4
    • Refrão - Parte 3 de 4
    • Refrão - Parte 4 de 4
    • Acordes da música (simplificada)
    • Ritmo da música
    • Encerramento
    • Ficha Técnica / Erros de Gravação
    OK