Cifra Club

Artemísia

Carne Doce

Cifrado: Principal (guitarra y guitarra eléctrica)
tono: E
E|-------------------------|
B|-------------------------|
G|----------16------16-----|
D|-16-16-16-----16------16-|
A|-------------------------|
E|-16-16-16-16--16--16--16-|

E|--------------------------|
B|--------------------------|
G|----------16---------16---|
D|-16-16-16-----16-16-----16|
A|--------------------------|
E|-16-16-16-16--16-16--16-16|

E|-------------------------|
B|-------------------------|
G|----------16------16-----|
D|-16-16-16-----16------16-|
A|-------------------------|
E|-16-16-16-16--16--16--16-|

E|------------|
B|------------|
G|----------16|
D|-16-16-16---|
A|------------|
E|-16-16-16-16|

E|----------------------------------------|
B|----------------------------------------|
G|----------------------------------------|
D|-------4-4-------4-4-------4-4-------4-4|
A|---2---------2---------2---------2------|
E|-4---4-----4---4-----4---4-----4---4----|

E|--------------------------------------------------------------|
B|--------------------------------------------------------------|
G|--------------------------------------------------------------|
D|------4/6r4-----------4/6r4----------4/6r4-----------4/6r4----|
A|---2--------6-4----2--------6-4---2--------6-4----2--------6-4|
E|-0---------------0--------------0---------------0-------------|

G#m7     C#5/A
Não vai nascer
B
Porque eu não quero
B                      C#5/A
Porque eu não quero e basta eu não querer
G#m7      C#5/A
Não vai viver
B
Porque eu vivo
B
Sou o deus vivo
     B7
Sua razão de ser

E|----------------------|
B|----------------------|
G|-----4----2-----4----4|
D|---2----2-----2----2--|
A|-4----4-----4----4----|
E|----------------------|

                  G#m7
De uma praga a um chá
        C#5/A          C#m7
Sabe a índia, sabe a química
            B4
Que o seu desencarnar
C#5/A                G#m7 B7/A
É da minha natureza
C#5/A                G#m7 B7/A
É da minha arquitetura
C#5/A            G#m7 B7/A
É do meu querer

E|-11r12r14-12-11--11r12p11/9-9r11p9/7-7r9p7/11---|
B|------------------------------------------------|
G|----------------------------------------------13|
D|------------------------------------------------|
A|------------------------------------------------|
E|------------------------------------------------|

E|-11r12r14-12-11--11r12p11/9-9r11p9/7-7r9|
B|----------------------------------------|
G|----------------------------------------|
D|----------------------------------------|
A|----------------------------------------|
E|----------------------------------------|

C#5/A                G#m7 B7/A
É da minha natureza
C#5/A                G#m7 B7/A
É da minha arquitetura
C#5/A           G#m7 B7/A
É do meu querer
Composición de João Victor / Salma Jô
Colaboración y revisión:
  • Thomas Carvalho
155 vistas
    • ½ Tono
    • A
    • Bb
    • B
    • C
    • Db
    • D
    • Eb
    • E
    • F
    • F#
    • G
    • Ab
  • Agregar a la lista

    0 comentarios

    Ver todos los comentarios

    ¿Lograste tocar?

    2 Tocaron 1 Aún no

    ¡Graba un video tocando Artemísia y envíanoslo!

    00:00 / 00:00
    Outros vídeos desta música
    Repetir Calidad Automático
    Outros vídeos desta música
    00:00 / 00:00
    Automático
    OK