Cifra Club

Comida Amarga

Carne Doce

Cifrado: Principal (guitarra y guitarra eléctrica)
tono: Cm
E|-----------3-------------------------3------------------|
B|-----------------------4-------------------------4------|
G|--------------------------------------------------------|
D|--------------------------------------------------------|
A|---3-------------------------3--------------------------|
E|--------------------------------------------------------|

E|-----------4-----------1-------------3------------------|
B|-------------------------------------------------4------|
G|--------------------------------------------------------|
D|---3-------------------------1--------------------------|
A|--------------------------------------------------------|
E|--------------------------------------------------------|

E|-----------8-------------------------8------------------|
B|------------------------9------------------------9------|
G|--------------------------------------------------------|
D|---6-------------------------6--------------------------|
A|--------------------------------------------------------|
E|--------------------------------------------------------|

E|-----------6-----------------8-------6------------------|
B|------------------------8------------------------8------|
G|--------------------------------------------------------|
D|--------------------------------------------------------|
A|---6----------------------------------------------------|
E|--------------------------------------------------------|

E|-----------3-------------------------3------------------|
B|-----------------------4-------------------------4------|
G|--------------------------------------------------------|
D|--------------------------------------------------------|
A|---3-------------------------3--------------------------|
E|--------------------------------------------------------|

E|-----------4-----------1-------------3------------------|
B|-------------------------------------------------4------|
G|--------------------------------------------------------|
D|---3-------------------------1--------------------------|
A|--------------------------------------------------------|
E|--------------------------------------------------------|

E|--------------------------------------------------------|
B|-----------4-------------------------4------------------|
G|-----------------------5-------------------------5------|
D|--------------------------------------------------------|
A|-----------------------------3--------------------------|
E|---4----------------------------------------------------|

E|-----------------------------8-------6------------------|
B|-----------9-------------------------------------9------|
G|------------------------8-------------------------------|
D|--------------------------------------------------------|
A|---8----------------------------------------------------|
E|--------------------------------------------------------|

Comida amarga, eu prometi
Que era um adeus, que era um final
Mas Deus bem sabe o quanto eu rezei
Pra ser vulgar como um anjo
Nenhum disfarce no teu olhar
Eu já venci, já não sou mais gostosa
Você goza triste em mim

Cm               Fm
Eu cato as sobras
     Eb
Dos teus sinais
Ab
Eu sou a sobra
       Eb
Junto com as sobras
   Cm          Fm Eb Ab  Fm
Eu não sou mais
Cm          
Eu prometi
    Fm         Eb
Que nunca mais
    Ab
Que tanto faz
         Eb         Cm
Mas Deus bem sabe
                 Fm Eb Ab   Fm
O quanto eu peco
Cm        Fm
Eu jogo sal
       Eb        Ab           Eb
Que é barato e antisséptico
Cm         Fm
Eu jogo sal
       Eb           Ab         Eb
Que acho no mar e no deserto
Cm          Fm
Eu jogo sal
             Eb        Ab               Eb
Que achei em qualquer corpo mais perto
Cm            Fm
Eu jogo o sal
         Eb     Ab            Eb
Que fiz suando nesse inferno
Composición de Salma Jô
Colaboración y revisión:
  • David Lima
  • Dennis Gabriel
117 vistas
    • ½ Tono
    • Am
    • Bbm
    • Bm
    • Cm
    • C#m
    • Dm
    • Ebm
    • Em
    • Fm
    • F#m
    • Gm
    • G#m
  • Agregar a la lista

    0 comentarios

    Ver todos los comentarios

    ¿Lograste tocar?

    4 Tocaron 3 Aún no

    ¡Graba un video tocando Comida Amarga y envíanoslo!

    00:00 / 00:00
    Outros vídeos desta música
    Repetir Calidad Automático
    Outros vídeos desta música
    00:00 / 00:00
    Automático
    OK