Cifra Club

Fetiche

Carne Doce

Cifrado: Principal (guitarra y guitarra eléctrica)
tono: D
Intro: 
( Bm Bm5+ Bm ) F#m5+ ( Em7(9) Em7 Em7(9) ) F#m5+ 2x

G|------------------2----------------------|
D|--------2-4---2/4-----2-4-5-4---------2--|
A|--2-4-5-----------------------4---2/4----|
E|-----------------------------------------|

G|------------------2----------------------|
D|--------2-4---2/4-----2-4-5-4------------|
A|--2-4-5-----------------------4---5------|
E|-----------------------------------------|

Verso (2x cada acorde):

     D4/G             D7M/F#            Dm/F                   E
E|--------0----------------------------------------1p0------------0-4--|
B|------3---3--------------2-----------------3---------3---3----0-0-5--|
G|----2-------2----------2---2-------------2---2---------2------1-1-4--|
D|---------------------0-------0---------0----------------------2------|
A|-------------(2x)--------------(2x)----------------------------------|
E|--3----------------2-----------------1---------1------------0--------|

 Bm                    Bb5+             Bm7/A           E/G#
E|--------7----------------9----------------7----------5---|
B|------7---7------------7---7------------7---7--------6---|
G|----7-------7--------7-------7--------7-------7------5---|
D|---------------------------------------------------------|
A|-------------(2x)-------------(2x)-------------(2x)------|
E|--7----------------6----------------5----------------5---|

D4/G               D7M/F#
Meu amor, perdoe a minha obsessão
               Dm/F
Eu sei que não há nenhuma razão
                    E
Pra eu ficar com ciúmes
D4/G                  D7M/F$
Meu amor, eu juro que tento me controlar
              Dm/F
Mas eu não consigo parar de pensar
                E
Que lá fora tem outras
Bm                  Bb5+
Outras bem mais e melhores
                  Bm7/A
Com toda forma de dote, bote
      E/G#
A te aguardar

D4/G                  D7M/F#
     Ansiosas pelo instante
                       Dm/F
Em que provarão serem amantes
                 D
Muito mais interessantes
D4/G
     Seus seios preencherão
D7M/F#                         Dm/F
     Ou mesmo sobrarão em suas mãos
     E
Tanto faz
D4/G                  D/F#
    Seja qual for a medida
                        Dm/F
Mais perfeita pro seu fetiche
                    D
Mais que eu outra terá

Intro: Bm Bb5+ Bm7/A E/G#

D4/G
     E eu fiel súdita sei
D7M/F#
     O porque de você ser rei
       Dm/F
     Tem de ser lei
      D
     Seu melhor gozar
D4/G                D/F#
     Então vá, pode ir

     Que eu ficarei aqui
         Bb   E
     Esperando você voltar


Bm7 D4/G D7M/F# D (2x)
Composición de Macloys / Salma Jô
Colaboración y revisión:
  • Igor
18 vistas
    • ½ Tono
    • A
    • Bb
    • B
    • C
    • Db
    • D
    • Eb
    • E
    • F
    • F#
    • G
    • Ab
  • Agregar a la lista

    0 comentarios

    Ver todos los comentarios

    ¿Lograste tocar?

    1 Tocaron 0 Aún no

    ¡Graba un video tocando Fetiche y envíanoslo!

    00:00 / 00:00
    Outros vídeos desta música
    Repetir Calidad Automático
    Outros vídeos desta música
    00:00 / 00:00
    Automático
    OK