Cifra Club

Luckie St

Cartel

Cifrado: Principal (guitarra y guitarra eléctrica)
tono: Db
Tabbed by: Brent(brentman)
Email: *

I'll be working on this for awhile. Rough draft (very rough) for now I guess...

Tuning: Db Ab Gb Db Bb eb 

Intro/Chorus
eb|---------------------------------------------------------------------------|
Bb|---------------7-7---------------------------------------------------------|
Gb|---------------7-7---------------------------------------------------------|
Db|---------------------------------------------------------------------------|
Ab|--9-9-9-5-5-5------7-7-7-7-7-0-0-------------------------------------------|
Db|--9-9-9-5-5-5------7-7-7-7-7-0-0-------------------------------------------|

Verse (Basic chords; strumming is pretty easy if you listen.)
eb|---------------------------------------------------------------------------|
Bb|---------------------------------------------------------------------------|
Gb|---------------------------------------------------------------------------|
Db|---------------------------------------------------------------------------|
Ab|--12-12-12-12-0-5-5-5-0-5-5-5-0-0-0-0-0------------------------------------|
Db|--12-12-12-12-0-5-5-5-0-5-5-5-0-0-0-0-0------------------------------------|

Pre-Chorus
eb|---------------------------------------------------------------------------|
Bb|---------------------------------------------------------------------------|
Gb|--------------------------12-12-----12-12-11-9-7---------------------------|
Db|---------------------------------------------------------------------------|
Ab|--4-4-4-4-4-0-0-0-0-2-2-2-10-10-0-2-10-10-9--7-5---------------------------|
Db|--4-4-4-4-4-0-0-0-0-2-2-2-------0-2----------------------------------------|

Intro/Chorus
eb|---------------------------------------------------------------------------|
Bb|---------------7-7---------------------------------------------------------|
Gb|---------------7-7---------------------------------------------------------|
Db|---------------------------------------------------------------------------|
Ab|--9-9-9-5-5-5------7-7-7-7-7-0-0-------------------------------------------|
Db|--9-9-9-5-5-5------7-7-7-7-7-0-0-------------------------------------------|


| /  slide up
| \  slide down
| h  hammer-on
| p  pull-off
| ~  vibrato
| +  harmonic
| x  Mute note
===============================================================================
00:00 / 00:00
Otros videos de esta canción
Repetir
Otros videos de esta canción
Composición de Cartel / Will Pugh
17 exhibiciones
    • ½ Tono
    • A
    • Bb
    • B
    • C
    • Db
    • D
    • Eb
    • E
    • F
    • F#
    • G
    • Ab
  • Agregar a la lista
    00:00 / 00:00
    OK