Cifra Club

Domingo a Tarde

Casa das Máquinas

Cifrado: Principal (guitarra y guitarra eléctrica)
tono: D
Intro.: 
        A guitarra 1 faz está na tab e a segunda
        encima da tab soando daquele jeito mesmo
        (ouve o som que tu vai flagrá o movimento!)
          D        C        G        D
        |--------------------------------------------|
        |--------------------------------------------|
        |--------------------------------------------|
        |-----4--------2-----------------------------|
        |-5-7------3-5------2-0------/5~-------------|
        |-----------------------3--------------------|

D                 E
Era meia-noite em ponto 
      G                      D   
De repente a gente se sentia perdido
D                 E             
Luz nada cheia de curvas sem sinais
  G                 D  D
A gente não sabia prá onde ir
D                E                       G
De repente apareceu na nossa frente uma placa
             D   D
Que indicava à direita
D                         E 
Bem no fim a gente encontrou algo estranho
 G                   D  D4 D
Não deixou nosso carro seguir
D               G  A
Era um disco voador
     D               G         A    D
Nos levou prá conhecer outra transação
    G          A     D              G        A    D
Jamais pensava quanta coisa tinha prá curtir no outro mundo
      C               G           D         
Num domingo à tarde a gente fez o show
       C           G          D
Quanta gente tinha naquele lugar
      C          G         D
Nossa pele ficou toda prateada
      C           G            D
Nosso som ficou totalmente dourado
=> camarada, nessa hora vc repete
   a intro.
D            G   A
Era um disco voador
     D             G          A   D
Nos levou prá conhecer outra transação
 G          A    D               G        A    D  D4
Jamais pensava quanta coisa tinha prá curtir no outro mundo
      C                G        D
Num domingo à tarde um disco voador
      C              G        D
Nos levou prum clube do interior
      C            G          D
Muita gente estava lá nos esperando
     C               G         D
De repente a gente estava lá tocando
=>se vc ouvir o som vc vai perceber que volta a introdução
  e ele fica dizendo iêh, iêh, iêh!

A guitarra 1 na parte do: Num domingo à tarde...
        |--------------------------------------------|
        |-------------------------------7------------|
        |-----------------------------7--------------|
        |-----4---------------------7----------------|
        |-5-7------3-2-0---/5~--(5)------------------|
        |----------------3---------------------------|
00:00 / 00:00
Otros videos de esta canción
Repetir
Otros videos de esta canción
Compositor no encontrado.
Colaboración y revisión:
  • Mário Cellurale
41 vistas
    • ½ Tono
    • A
    • Bb
    • B
    • C
    • Db
    • D
    • Eb
    • E
    • F
    • F#
    • G
    • Ab
  • Agregar a la lista

    0 comentarios

    Ver todos los comentarios

    ¿Lograste tocar?

    0 Tocaron 0 Aún no

    ¡Graba un video tocando Domingo a Tarde y envíanoslo!

    00:00 / 00:00
    OK