Cifra Club

Mania de Ser

Casa das Máquinas

Cifrado: Principal (guitarra y guitarra eléctrica)
tono: C
(intro)
                         G A B (2x)
E|---------------------|
B|-4-4--5-5--4-4--5-5--|
G|-4-4--4-4--4-4--4-4--|
D|-4-4--4-4--4-4--4-4--|
A|---------------------|
E|---------------------|

( Dm  G/B  B  Bb C )
Fiz transações pra poder entender o que é a razão ao meu ver
Sem saber em que bicho vai dar
Minha mania de ser
De querer a missão de cantar
Pra mim só importa gostar
( F  E  D# )
De você e o melhor pra nós dois é pensar em amar
Não olhar para trás
Pra nao ver os pecados banais

Não há tempo pra esperar
Quem não pode mais nos alcançar
Só ficou para trás
Quem não canta e não sabe amar



Final:

2x

E|---------------------|
B|---------------------|
G|-9-10-7--------------|
D|---------------------|
A|---------------------|
E|---------------------|

E|-------------------------|
B|-------------------------|
G|-9-10-12-10-9-10-9-5-7---|
D|-------------------------|
A|-------------------------|
E|-------------------------|
00:00 / 00:00
Otros videos de esta canción
Repetir
Otros videos de esta canción
Composición de Catalau / Netinho / Pisca
Colaboración y revisión:
  • Luiz
  • Villa Catarina
  • dionisius torres
103 vistas
    • ½ Tono
    • A
    • Bb
    • B
    • C
    • Db
    • D
    • Eb
    • E
    • F
    • F#
    • G
    • Ab
  • Agregar a la lista

    0 comentarios

    Ver todos los comentarios

    ¿Lograste tocar?

    0 Tocaron 1 Aún no

    ¡Graba un video tocando Mania de Ser y envíanoslo!

    00:00 / 00:00
    OK