Cifra Club

Vou Morar No Ar

Casa das Máquinas

Cifrado: Principal (guitarra y guitarra eléctrica)
Selo Cifra Club: esta cifra foi revisada para atender aos critérios oficiais da nossa Equipe de Qualidade.
tono: Am
Am                 F
Abra que eu quero ver
G        C    E
Esse céu azul
Am                F
Abra que eu quero olhar
G           C   
Esse mar do Sul
Am                F
Abra que eu quero voar
G            C E   Am
O Mais alto que eu puder
              F
Um dia eu vou sair
G            C
Vou morar no Ar

E|----------------------------|
B|----------------------------|
G|----------------------------| (2x)
D|--5-7--x-x-x----5-7--x-x-x--|
A|--x-x--x-x-x----x-x--x-x-x--|
E|0-3-5--x-x-x--0-3-5--x-x-x--

E|----------------------------|
B|----------------------------|
G|----------------------------|
D|--5-7--10-------------------|
A|--x-x--x--------------------|
E|0-3-5--8--------------------|

E           Am
Ha    haaaaaaaa
E           Am
Ha    haaaaaaaa
E           Am     E
Ha    haaaaaaaa...haaaa
Am       G      Am
Morar no ar,no ar
 G       C   E
Olhando pro mar
Otros videos de esta canción
    31.606 exhibiciones
      • ½ Tono
      • Am
      • Bbm
      • Bm
      • Cm
      • C#m
      • Dm
      • Ebm
      • Em
      • Fm
      • F#m
      • Gm
      • G#m
    • Agregar a la lista

    Afinación de cifrado

    Afinador online

      OK