Cifra Club

Abre Os Céus

Casa de Davi

Cifrado: Principal (guitarra y guitarra eléctrica)
tono: D
(riff)
E|------------------------------------------------------
B|------------------------------------------------------
G|------------------------------------------------------
D|---------------5--4-----------------------------------
A|---------------------7-5-4-5-7------------------------
E|--------------------------------5---------------------

(intro) D Bm7 G D G D Bm7 G C  G/B

E|------------------------------------------------------
B|--------15--------------------------------------------
G|----14------14--12--11--12----------------------------
D|----------------------------12------------------------
A|------------------------------------------------------
E|------------------------------------------------------

E|---------------15-14---------------15--------17---------
B|-----------15--------15-----15--------17--15------------
G|-------------------------------12-----------------------
D|------12------------------------------------------------
A|--------------------------------------------------------
E|--------------------------------------------------------

D9                            Bm7
HÁ UM DESEJO EM NOSSO CORAÇÕES
              G9
TEU REINO SENHOR
D9                      Bm7               G9 D/F#
TUA PRESENÇA EM CADA NAÇÃO   CLAMAMOS, JESUS
Em7               D7/F#        G
QUE TU VENHAS COM TODO TEU PODER
              A4               D9 Bm7 C9
HABITAR ENTRE NÓS QUEREMOS,SENHOR

D9                            Bm7
NOSSOS OLHOS ESTÃO SOMENTE EM TI
             G9
QUEREMOS TE VER
D9                         Bm7            G9 D/F#
APRENDER A OUVIR A TUA VOZ     E TE OBEDECER
Em7               D7/F#        G
QUE TU VENHAS COM TODO TEU PODER
               A4               D9 Bm7 C9
HABITAR ENTRE NÓS QUEREMOS,SENHOR

(riff)

D                     A
ABRE OS CÉUS E DESCE, ABRE OS CÉUS E DESCE
Bm7                       G9
ABRE OS CÉUS E DESCE SENHOR
D                      A
VENHA A NÓS TEU REINO, VENHA A NÓS TEU REINO
Bm7                       G9
VENHA A NÓS TEU REINO SENHOR
D                  A
FAZ CAIR TUA CHUVA,FAZ CAIR TUA CHUVA
Bm7                    G9
FAZ CAIR TUA CHUVA SENHOR

         C
SOMOS O POVO MAIS
   G/B             D
FELIZ DE TODA TERRA
        C
FOMOS CONSTITUÍDOS
    G/B         D
REIS E SACERDOTES
        C           G/B
E REINAREMOS COM JESUS
         D
EM SUA GLÓRIA E MAJESTADE

     C           G/B
QUE VENHA O SEU REINO
QUE VENHA O SEU REINO
QUE VENHA O SEU REINO
    C            (riff)
SOBRE NÓS...

(solo) A/G   D/F#   B/A   E/G#   D/C   G/B  A9

E|-------10-------14-12--------17-15------------17------
B|---12^------14^---------17^------------15-17----------
G|------------------------------------------------------
D|------------------------------------------------------
A|------------------------------------------------------
E|------------------------------------------------------

E|------------------------------------------------------
B|------------------------------------------------------
G|------10-9-7------------------------------------------
D|-------------10----10-8-7-8-10------------------------
A|-------------------------------8----------------------
E|------------------------------------------------------
Composición de Davi Silva
Colaboración y revisión:
  • Lucas Rocha
  • Levy Dias
  • isaque santos
80 vistas
    • ½ Tono
    • A
    • Bb
    • B
    • C
    • Db
    • D
    • Eb
    • E
    • F
    • F#
    • G
    • Ab
  • Agregar a la lista

    0 comentarios

    Ver todos los comentarios
    00:00 / 00:00
    Outros vídeos desta música
    Repetir Calidad Automático
    Outros vídeos desta música
    00:00 / 00:00
    Automático
    OK