Cifra Club

Eu Sou Livre

Casa de Davi

Cifrado: Principal (guitarra y guitarra eléctrica)
tono: A
Intro1.:Guitarra e baixo
E|-------------------------------------------------------------------|
B|-------------------------------------------------------------------|
G|---2-4-5-2-4-2----2-4-5-4------------------------------------------| Riff 1
D|--2--------------2-------------------------------------------------| 2 VeZes
A|-------------------------------------------------------------------|
E|-------------------------------------------------------------------|

Logo depois do riff 1, executar o segundo riff
Intro2.:
E|---------------------------------------------|
B|---------------------------------------------|
G|------------------------------2--224---------|
D|---2----22-2h4----------2-2-2-2h4-2h4----4---|
A|---2h4---4-2---------2h4---4-----------------|
E|---------------------------------------------|

E|---------------------------------------------------------|
B|---------------------------------------------------------|
G|------------------------------2--224----2-2-----2/4------|
D|---2----22-2h4----------2-2-2-2h4-2h4----4------4--2-4---|
A|---2h4---4-2---------2h4---4-----------------------------|
E|---------------------------------------------------------|

A     E     Bm7  D9
EU CONHECI UMA PESSOA TÃO ESPECIAL 
A      E     Bm7   D
ELE MUDOU A MINHA VIDA DE FORMA SOBRENATURAL 
A     E     Bm7 D9
EU CONHECI UMA PESSOA TÃO ESPECIAL 
A      E     Bm7    D
ELE MUDOU A MINHA VIDA DE FORMA SOBRENATURAL        
A      E
EU VIVO A VIDA LIVRE COM CRISTO        
Bm7                D9
EU VIVO A VIDA CHEIO DE ALEGRIA – 2X
A  E      Bm7    D
EU SOU LIVRE,   EU SOU LIVRE – 2X      
A       E
NA PRESENÇA DO SENHOR ME ALEGRAREI  
F#m7      D
NA PRESENÇA DO SENHOR CELEBRAREI     
A       E
NA PRESENÇA DO SENHOR EU DANÇAREI    
Bm7        D
NA PRESENÇA DO SENHOR EU SALTAREI                    

Solo guitarra:F7-C/E-Dm7-C/E-F7-C/E-(Bm-A/E-D/B-Esus4-E)
A E Bm7  D9
MEU JESUS TE QUERO, MAIS QUE EU POSSA IMAGINAR   
A  E  Bm7  D9
MEU JESUS TE AMO MUITO MAIS           

FINAL:-G9-D/F#-A/C#-E/G# -F7+9
Composición de Calebe Silva / DAVI
Colaboración y revisión:
  • Daniel Fazolo
  • Felipe Silva
79 vistas
    • ½ Tono
    • A
    • Bb
    • B
    • C
    • Db
    • D
    • Eb
    • E
    • F
    • F#
    • G
    • Ab
  • Agregar a la lista

    0 comentarios

    Ver todos los comentarios
    00:00 / 00:00
    Outros vídeos desta música
    Repetir Calidad Automático
    Outros vídeos desta música
    00:00 / 00:00
    Automático
    OK