Notificações Amigos pendentes

      Cássia Eller

      O Segundo Sol

      2.626 reproducciones
      Tono: F (con acordes en la forma de D) Capo en 3ª casa
      Intro: A9
      
      Primeira parte:
      E                          Bm7
        Quando o segundo sol chegar
             D                           A
       Para realinhar as órbitas dos planetas
      
                         E
      E|----------------3---------|
      B|----------------3---------|
      G|----------------4---------|
      D|----------------5---------|
      A|----------------5---------|
      E|---------6p5p3--3---------|
      
      
      E                              Bm7
       Derrubando com assombro exemplar
                    D
       O que os astrônomos diriam se tratar
              A
       De um outro cometa
      
      E                         Bm7
       Quando o segundo sol chegar
            D                            A
       Para realinhar as órbitas dos planetas
      E                              Bm7
       Derrubando com assombro exemplar
                    D
       O que os astrônomos diriam se tratar
              A
       De um outro cometa
      
      Passagem:
        (ou-tro co-meta)
      
      E|----------------------------------|
      B|-5---5-----5----------------------|
      G|-5---5-----5----------------------|
      D|-5h7-5-----5h7---------------/7---|
      A|--------7-------------5-h7--------|
      E|----------------5-h7--------------|
      
      
      (riff 1) (Pode tocar nas seis cordas)
      
            E
      E|--3-----------------------------3----------------------------|
      B|--3-----------------------------3----------------------------|
      G|--4---7-9-10-9-10-12-14-12------4---7-9-10-9-10-12-14-14/16--|
      D|--5---x-x--x-x--x-x--x--x-------5---x-x--x-x--x--x--x--x--x--|   (2x)
      A|--5---5-7--8-7--8-10-12-10------5---5-7--8-7--8-10-12-12/14--|
      E|--3-----------------------------3----------------------------|
      
      
      Segunda parte:
       E                             E7
       Não digo que não me surpreendi
       E
       Antes que eu visse, você disse e eu não pude
           E7
       acreditar
      
      
      E|---------------------5--|
      B|---------------------6--|
      G|--7-9-10-9-14-12--10-5--|
      D|--x-x-x--x--x--x--x--3--|
      A|--5-7-8--7-12-10--8-----|
      E|------------------------|
      
      
       D          A/C#        Bm7
        Mas você pode ter certeza,
      A                             Em7
       De que o seu telefone irá tocar
           D                  A/C#
       Em sua nova casa que abriga
                 Bm7
       agora a trilha
            A                   G
       Incluída nessa minha conversão
      A                    Em7
       Eu só queria te contar
       Que eu fui lá
        D
       fora e vi dois sois num dia
       A/C#      Bm7        A
       E a vida que ardia sem explicação
      
      (repete a primeira parte)
      (repete segunda parte)
      
           D
       Explicação
            A
       Não tem explicação
           D
       Explicação
             A
       Não tem explicação
           D
       Explicação
                     A
       Não tem, não tem explicação
           D
       Explicação
                   D   A/C#  Bm7
       Não tem expli...ca...ção
        A   D/F#  A
       Não tem, não tem
        Composición: Nando ReisColaboración y revision:
        • Caroline
        • ffbnois
        • Hate
        • l.ricardo gtr
        • +7

        Comentarios 38

        140 .
        • jvfig jvfig: Em 19/09/2015 01:40

          Clássico da música brasileira!!

        • gs gs: Em 16/07/2015 14:58

          coloca o tom em sol (g) que fica mesma coisa pra quem nao tem ou nao gosta do capotraste

        • Luiz Luiz: Em 18/06/2015 18:56

          mudei pra G# MAIS a cifra continua em F

        • Luiz Luiz: Em 18/06/2015 18:54

          falo que tem esta droga de capotraste desisto na hora detesto capolixo

          • Victor Victor: Em 19/06/2015 13:23

            é só almentar o tom mano, ainda mais que é acorde

          • André André: Em 29/09/2015 13:13

            Uai, pestana brother, ou usa o campo harmônico pra alterar o tom pelos graus.

          • gabriiel.marques.7 gabriiel.marques.7: Em 10/04/2016 22:54

            capolixo por que n sabe usar noob lol

        • Sandro Sandro: Em 18/11/2014 15:02

          Quando eu tento imprimir com duas colunas por página, a letra fica fora de ordem... Tem como concertar isto?

        • wesley.desouza.370 wesley.desouza.370: Em 04/10/2014 13:24

          não entendi o ( Bm) no tom de F.

          • maikon.wagner maikon.wagner: Em 08/01/2016 19:15

            Capotraste na 3ª Casa, o Bm na verdade é um Dm.

        140 cancelar
        0:00 / 0:00
        2 versões de Guitar Proformatodownloadscontribuición
        play/pausefechar subir/bajar velocidad
        6ª cuerda E5ª cuerda A4ª cuerda D3ª cuerda G2ª cuerda B1ª cuerda E
          acordes
          publicidad
          cerrar
          ok