Cifra Club

Aprenda

Palavras Ao Vento

Cássia Eller

Tablatura: Principal (guitarra)
tono: F#m
Intro 2x: A  Bm11/A  Bm7(11)/A
          A6(9)  A  Bm11/A

Primeira Parte:

A                              Bm11/A
Ando por aí querendo te encontrar
           Bm7(11)/A            A6(9)
Em cada esquina paro em cada olhar
             A9
Deixo a tristeza e trago 
       Bm11/A
A esperança em seu lugar

 A                             Bm11/A
Que o nosso amor pra sempre viva
    Bm7(11)/A
Minha dádiva
A6(9)          A9
      Quero poder jurar
             Bm11/A
Que essa paixão jamais será

Refrão:

   A
Palavras apenas
Bm11/A       Bm7(11)/A
       Palavras pequenas
A6(9)    A9    Bm11/A
      Palavras

Intro: A  Bm11/A  Bm7(11)/A
       A6(9)  A  Bm11/A

Primeira Parte:

A9       A7M(9)                Bm7(11)
Ando por aí querendo te encontrar
                                A9
Em cada esquina paro em cada olhar
             A7M(9)
Deixo a tristeza e trago 
       Bm7(11)
A esperança em seu lugar

A9               A7M(9)         Bm7(11)
   Que o nosso amor pra sempre viva

Minha dádiva
A9          A7M(9)
   Quero poder jurar
             D            C#7
Que essa paixão jamais será

Refrão:

   F#m7(11)
Palavras apenas
   E
Palavras pequenas
A9              C#7
   Palavras, momento

   F#m7(11)
Palavras, palavras
   E
Palavras, palavras
A9              C#7
   Palavras ao vento

Primeira Parte:

A9       A7M(9)                Bm7(11)
Ando por aí querendo te encontrar
                                A9
Em cada esquina paro em cada olhar
             A7M(9)
Deixo a tristeza e trago 
       Bm7(11)
A esperança em seu lugar

A9               A7M(9)         Bm7(11)
   Que o nosso amor pra sempre viva

Minha dádiva
A9          A7M(9)
   Quero poder jurar
             D            C#7
Que essa paixão jamais será

Refrão Final:

   F#m7(11)
Palavras apenas
   E
Palavras pequenas
A9              C#7
   Palavras, momento

   F#m7(11)
Palavras, palavras
   E
Palavras, palavras
A9              C#7
   Palavras ao vento

   F#m7(11)
Palavras apenas, apenas
E
  Palavras pequenas
A9           C#7  D  Bm7(11)  D  A9
   Palavras

Dedilhado Intro, Primeira Parte e Primeiro Refrão:

Parte 1

   A
E|------------------------------------------|
B|-2--2-2-2--2---2-2----2-2-2---------------|
G|-2--2-2-2--2---2-2----2-2-2---------------|
D|-2--2-2-2--2h4---4p2--2-2-2---------------|
A|-0----------------------------------------|
E|------------------------------------------|
   ↓  ↑ ↓ ↑  ↓   ↑ ↓    ↓ ↑ ↓

Parte 2

  Bm11/A       Bm7(11)/A
E|-0--0-0-0-0--5-5-5-5--5-5-5-5-------------|
B|-3--3-3-3-3--3-3-3-3--3-3-3-3-------------|
G|-4--4-4-4-4--4-4-4-4--4-4-4-4-------------|
D|-4--4-4-4-4--4-4-4-4--4-4-4-4-------------|
A|-0-----------0----------------------------|
E|------------------------------------------|
   ↓  ↓ ↑ ↓ ↑  ↓ ↓ ↑ ↓  ↓ ↑ ↓ ↑

Parte 3

   A6(9)       A9
E|-2--2-2-2-2--0-0-0-0--0-0-0-0-------------|
B|-0--0-0-0-0--0-0-0-0--0-0-0-0-------------|
G|-2--2-2-2-2--2-2-2-2--2-2-2-2-------------|
D|-2--2-2-2-2--2-2-2-2--2-2-2-2-------------|
A|-0-----------0----------------------------|
E|------------------------------------------|
   ↓  ↓ ↑ ↓ ↑  ↓ ↓ ↑ ↓  ↓ ↑ ↓ ↑

Parte 4

   Bm11/A
E|-0--0-----0-----0-----0-------------------|
B|-3----3-----3-----3-----3-----------------|
G|-4------4-----4-----4-----4---------------|
D|-4----------------------------------------|
A|-0----------------------------------------|
E|------------------------------------------|
   ↓
Composição de Marisa Monte / Moraes Moreira
10.250 reproducciones
  • Simplificar cifra
    • ½ Tono
    • Am
    • Bbm
    • Bm
    • Cm
    • C#m
    • Dm
    • Ebm
    • Em
    • Fm
    • F#m
    • Gm
    • G#m
  • Adicionar à lista

    0 comentarios

    Ver todos os comentários

    ¿Conseguiste tocar?

    208 Tocaram 36 Ainda não

    Grave um vídeo tocando Palavras Ao Vento e nos envie!

    00:00 / 00:00
    outros vídeos desta música
    repetir qualidade Automático
    Outros vídeos desta música
    00:00 / 00:00
    Automático
    Capítulos
    • Tocando a Música
    • Dicas iniciais / Equipamentos
    • Acordes da música
    • Tocando Introdução, Primeira Parte e Refrão 1
    • Introdução - Parte 1 de 4
    • Introdução - Parte 2 de 4
    • Introdução - Parte 3 de 4
    • Introdução - Parte 4 de 4
    • Dicas Primeira Parte (Repetição)
    • Tocando repetição da primeira parte
    • Ensinando Ritmo
    • Dicas Refrão 2
    • Tocando Refrão 2
    • Dicas Refrão 3
    • Tocando Refrão 3
    • Ensinando Refrão 3
    • Dicas finais /Encerramento
    • Ficha Técnica
    OK