Cifra Club

Into White

Cat Stevens

Cifrado: Principal (guitarra y guitarra eléctrica)
tono: G

Intro       E |--0-------|-2----------|-0--------|-2----------|
            B |--1-------|-3----------|-1--------|-3----------|
            G |-----0----|----2-------|----0-----|---2--------|     (x2)
            D |----------|------------|----------|-0----------|
            A |--3-----2-|-0-----0--2-|-3-----2--|-----0--2---|
            E |----------|------------|----------|------------|
                 C   (C/B) D/A          C   (C/B) D

Verse 1

C C/B  D/A     C  C/B  D/A        C  C/B  D      C       C/B  D/A
           I build my house from bar-ley rice, green pepp-er walls , 
   C C/B  D       G         C          D       Fadd9  C
& wat-er ice,  tables of paperwood, windows of light----,


                     G     (D)          Esus4         E
                E |--3----|-------------|-0----|------|---0--|------|
                B |--0----|-------------|-0----|------|---0--|------|
                G |-------|-------------|-2----|------|---1--|------| 
                D |-------|-0-----------|-2----|------|---2--|------|
                A |--2----|----3---2----|-2----|------|---2--|------|
                E |--3----|-----------3-|-0----|------|---0--|------|
 And everything  emptying  in-to  whi----te
                     


Intro



Verse 2

   C  C/B   D/A         C   C/B D      C      C/B  D/A
A sim-ple garden with acres of sky, a brown haired dog mouse,
    C    C/B   D     G         C           D            Fadd9  C
If one dropped by, yellow de-lanie would sleep well at night------,
                    G     (D) Esus4    E
With everything emptying into white-------



Intro




Break   
                          (xx3213)
  G      C             D   Fadd9   C     G    D    Esus4     E  
Ah----,  ah, ah-ah, ah
           



           
Verse 3

   C        C/B   D/A         C    C/B  D       C        C/B   D/A
A sad blue eyed drummer re-hearses out-side, a black spi-der dancing 
    C     C/B  D    G            C             D      Fadd9  C
on top of his eye, red legged chicken stands ready to strike----,
                   G     (D)  Esus4   E
And everything emptying into white-------



Verse 4

    C  C/B  D/A        C  C/B  D      C       C/B  D/A        C C/B  D
I build my house from bar-ley rice, green pepp-er walls, and wat-er ice,

G  C  D  Fadd9   C 
                   
                     G     (D)           Esus4    Esus4
                E |--3--------------------0------|-------|
                B |--0--------------------0------|-------|
                G |-----------------------2------|-------| 
                D |--------0--------------2------|-------|
                A |--2--------3---2-------2------|-------|
                E |--3--3-------------3---0------|-------|
 And everything emptying   in-to whi-----te
 

                      (D)                    E   
                E |--------------------------4-----------|
                B |--------------------------0-----------|
                G |---2---0------------------1-----------|
                D |------------4----0--------2-----------|
                A |--------------------------2-----------|
                E |--------------------------0-----------|
00:00 / 00:00
Otros videos de esta canción
Repetir
Otros videos de esta canción
Composición de Cat Stevens
342 exhibiciones
    • ½ Tono
    • A
    • Bb
    • B
    • C
    • Db
    • D
    • Eb
    • E
    • F
    • F#
    • G
    • Ab
  • Agregar a la lista
    00:00 / 00:00
    OK