Cifra Club

Segredos

Catch Side

Cifrado: Principal (guitarra y guitarra eléctrica)
tono: D
# o solo nao é o original, mas dá pra tocar =]


Bb5 G5 Eb5 F5
Um belo dia ensolarado
meu grande dia ia chegar
mas seu pai chegou com o carro
justamente para atrapalhar

Bb5 G5 Eb5 F5
Eu acho que estou ferrado
se ele me vir com você
tudo bem eu to pelado
pela janela eu vou descer

G5 Bb5 Eb5 F5
Escuto todos seus segredos 
e até ja sei todos seus medos
quando você me liga de madrugada pra chorar

Bb5 G5 Eb5 F5
Nao vai ter fim
Vai ser assim
Uma bela historia
Nunca tem fim

Bb5 G5 Eb5 F5
Se for aqui
vai ser enfim
Uma bela historia
Não acaba assim

Bb5 G5 Eb5 F5 
Se tudo tem um motivo para acontecer
me fale logo o meu porque eu quero viver
ta tão dificil te ver
ta tão dificil te olhar
e ver tudo que eu queria num só olhar

Bb5 G5 Eb5 F5                            <<-- base batendo só nas cordas E e A

G5 Bb5 Eb5 F5
Queria saber o motivo
de seu sorriso ao lhe ver
se o cara que você gosta
nem fala com você


Solinho :)

E--------------------------------  
B--------------------------------  
G--------------------------------    << 2X
D--------------------------------  
A--8-8-8-8-8-8--6-6-6-6-5-6-5----  
E--------------------------------  

E-------------------------------------------
B-------------------------------------------
G-------------------------------------------
D--------------------------------------8----
A--10-10-10-10-10-10-10-10--8-8-8-8-10---10-
E-------------------------------------------

E--------------------------------
B--------------------------------
G--------------------------------
D--8-8-8-8-8-8--7-7-7-7-5-7-5----
A--------------------------------
E--------------------------------

( canta esse verso com o solinho )
Sonhe sempre comigo
Pois estarei sempre contigo

Bb5 G5 Eb5 F5 ( primeira estrofe abafado )
Nao vai ter fim
Vai ser assim
Uma bela historia
Nunca tem fim

Bb5 G5 Eb5 F5
Se for aqui
vai ser enfim
Uma bela historia
Não acaba assim


michel ~ºreevº~
00:00 / 00:00
Otros videos de esta canción
Repetir
Otros videos de esta canción
Composición de Digo / Kaka
Colaboración y revisión:
  • Michel Massolar
22 vistas
    • ½ Tono
    • A
    • Bb
    • B
    • C
    • Db
    • D
    • Eb
    • E
    • F
    • F#
    • G
    • Ab
  • Agregar a la lista

    0 comentarios

    Ver todos los comentarios

    ¿Lograste tocar?

    0 Tocaron 0 Aún no

    ¡Graba un video tocando Segredos y envíanoslo!

    00:00 / 00:00
    OK