Cifra Club

Ao Teu Lado

Catedral

Cifrado: Principal (guitarra y guitarra eléctrica)
tono: A
Intro 2x: A F#m D A D A E
E|-7h9-9-9-7-7--------7h9-9-9-7-7-9-12--7h9-9-9-7-7-10-9--7h9-9-9-7-7-10-9------------------------|
B|-------------10-10------------------------------------------------------------------------------|
G|------------------------------------------------------------------------------------------------|
D|------------------------------------------------------------------------------------------------|
A|------------------------------------------------------------------------------------------------|
E|------------------------------------------------------------------------------------------------|

E|-12-12-12-12---10-10-10-10p9-9-9----------------------------------------------------------------| (2x)
B|-----------------------------------10-10-10-10p9-9-9-9p7-7-7-9-9--10-10-10-10p9-9-9-9p7-7-7-9-9-|
G|------------------------------------------------------------------------------------------------|
D|------------------------------------------------------------------------------------------------|
A|------------------------------------------------------------------------------------------------|
E|------------------------------------------------------------------------------------------------|

A
O que nunca imaginei
                   F#m
Tudo aquilo que um dia eu sonhei
                    D
Tudo o que era impossível de entender
Bm                   E   E4 E
Ao Teu lado eu entendi
A
O que nunca esperei
                  F#m
Tudo aquilo que eu sempre desejei
                      D
Todas as coisas que eu nunca superei
Bm                    E  E4 E
Ao Teu lado eu consegui.

Refrão:
        A      D        E
O meu amor eu te entreguei
           A     D      E
E em Teus braços descansei
       F#m         A
Meu coração é Tua casa
         D          E
E a Teu lado vai estar
         A     D    E
A minha vida é te amar
         A      D      E
E em Teu Nome irei sonhar
        F#m        A
Meu coração é Tua casa
         D          E
E a Teu lado vai estar.

 Solo: A F#m D A D A E
E|-9-10-12---10-9----9----------------------------------------------------------------------|
B|----------------12---10-1214--12-10-9-10--9-10-12-12h14--12p10-----10-12-12h14--12p10-----|
G|---------------------------------------------------------------11---------------------11--|
D|------------------------------------------------------------------------------------------|
A|------------------------------------------------------------------------------------------|
E|------------------------------------------------------------------------------------------|

E|-7-9-10--12------------7-9h10--12---------------------------------------------------------|
B|------------12-10-----------------12-10-----10-12--10-12----------------------------------|
G|-----------------------------------------------------------------------11-----------------|
D|------------------------------------------------------------------------------------------|
A|------------------------------------------------------------------------------------------|
E|------------------------------------------------------------------------------------------|

E|---------------------------------------------------|
B|---------------------------------------------------|
G|---------------------6------6-7--6-7-9-10----------|
D|------6-7-9----6-7-9-----9-------------------------|
A|--7-9----------------------------------------------|
E|---------------------------------------------------|
00:00 / 00:00
Otros videos de esta canción
Repetir
Otros videos de esta canción
Composición de Julio / Kim
Colaboración y revisión:
127 vistas
    • ½ Tono
    • A
    • Bb
    • B
    • C
    • Db
    • D
    • Eb
    • E
    • F
    • F#
    • G
    • Ab
  • Agregar a la lista

    0 comentarios

    Ver todos los comentarios
    00:00 / 00:00
    OK