Cifra Club

Play Land

Catedral

Cifrado: Principal (guitarra y guitarra eléctrica)
tono: G
G|--------------------5--------------------------------------------------------|
D|------5-----7-----5---5-------5-----7---0-2-0-2-0-2-4-5-2-0-2-4-0-2-0-2-0----|
A|----5-----7---2-5-------5---5-----7---2--------------------------------------|
E|--3-----5-----------------3-----5--------------------------------------------|
  | 
B|-----------------------------------------------------------------------------|
G|-----------------------------------------------------------------------------|
D|-----------------------------------------------------------------------------|
A|-----------------------------------------------------------------------------|
E|-----------------------------------------------------------------------------|
  | 
G|-----------------------------------------------------------------------------|
D|-----------------------------------------------------------------------------|
A|-----------------------------------------------------------------------------|
E|-----------------------------------------------------------------------------|
  | 
G|-----------------------------------------------------------------------------|
D|-----------------------------------------------------------------------------|
A|-----------------------------------------------------------------------------|
E|-----------------------------------------------------------------------------|
  | 
G|----------------------7-7-----7-7-7---------------------7-7-----7-7----------|
D|----0-2-0-0-9-7-5-7-9-----7-7-------5-5-7-9-7-9-7-5-7-9-----7-7-----7-5-0----|
A|-----------------------------------------------------------------------------|
E|-----------------------------------------------------------------------------|
  1                                                                          

                                                                                2 
E|-----------------------------------------------------------------------------|
B|-----------------------------------------------------------------------------|
G|-----------------------------------------------------------------------------|
D|-----------------------------------------------------------------------------|
A|-----------------------------------------------------------------------------|
E|-----------------------------------------------------------------------------|
  | 
G|--0-0-------------7-7-----7-8------------------------------------------------|
D|------0-9-7-5-7-9-----7-7-----7-5-5-5-5-5-5-5-5-5-4-3-------2-2-2------------|
A|------------------------------------------------------3-2-2-----------5------|
E|------------------------------------------------------------------3-5---5----|
  | 
G|-----------------------------------------------------------------------------|
D|-----------------------------------------------------------------------------|
A|-----------------------------------------------------------------------------|
E|-----------------------------------------------------------------------------|
  | 
G|-----------------------------------------------------------------------------|
D|-----------------------------------------------------------------------------|
A|-----------------------------------------------------------------------------|
E|-----------------------------------------------------------------------------|
  2
00:00 / 00:00
Otros videos de esta canción
Repetir
Otros videos de esta canción
Composición de Julio Cezar
Colaboración y revisión:
  • Arthur Dias
12 vistas
    • ½ Tono
    • A
    • Bb
    • B
    • C
    • Db
    • D
    • Eb
    • E
    • F
    • F#
    • G
    • Ab
  • Agregar a la lista

    0 comentarios

    Ver todos los comentarios
    00:00 / 00:00
    OK