Cifra Club

Quem Disse Que O Amor Pode Acabar?

Catedral

Cifrado: Principal (guitarra y guitarra eléctrica)
tono: C
Intro: C  G  Dm  F (2x)

E|-------------------|-------------------|------------------|
B|--5-5--6-8---3-3---|--3--5-6-5-3-1-----|------------------|
G|-------------------|-------------------|------------------|
D|-------------------|-------------------|------------------|
A|--3-3--5-7---2-2---|--5--7-8-7-5-3-----|------------------|
E|-------------------|-------------------|------------------|

E|-------------------|-------------------|------------------|
B|--5-5--6-8--10-8---|--6-5--3-1---------|------------------|
G|-------------------|-------------------|------------------|
D|-------------------|-------------------|------------------|
A|--3-3--5-7--8--7---|--8-7--5-3---------|------------------|
E|-------------------|-------------------|------------------|

C  G          Dm
Eu   não entendi
    F                C G          Dm
Por que nunca consegui   te responder
F               Dm      F     G
Se tudo o que eu queria   era você
Dm      F       G  G
Não sei   o que dizer

C  G          Dm
Eu   não percebi
      F            C   G         Dm
Que a razão era maior    e adormeci
F            Dm         F    G
No momento mais difícil   te perdi
Dm     F   G
Mas nunca desisti

                   C  G  Dm      F
Quem disse que o amor    pode acabar?
C                         G   Dm      F
Quem foi que disse que o amor pode acabar
                   C  G  Dm      F
Quem disse que o amor    pode acabar?
C                         G   Dm      F
Quem foi que disse que o amor pode acabar

C  G          Dm
Eu   não percebi
      F            C   G         Dm
Que a razão era maior    e adormeci
F            Dm         F    G
No momento mais difícil   te perdi
Dm     F   G
Mas nunca desisti

                   C  G  Dm      F
Quem disse que o amor    pode acabar?
C                         G   Dm      F
Quem foi que disse que o amor pode acabar
                   C  G  Dm      F
Quem disse que o amor    pode acabar?
C                         G   Dm      F
Quem foi que disse que o amor pode acabar
Composición de Julio C / Kim
2.411 vistas
    • ½ Tono
    • A
    • Bb
    • B
    • C
    • Db
    • D
    • Eb
    • E
    • F
    • F#
    • G
    • Ab
  • Agregar a la lista

    0 comentarios

    Ver todos los comentarios

    ¿Lograste tocar?

    80 Tocaron 6 Aún no

    ¡Graba un video tocando Quem Disse Que O Amor Pode Acabar? y envíanoslo!

    00:00 / 00:00
    Outros vídeos desta música
    Repetir Calidad Automático
    Outros vídeos desta música
    00:00 / 00:00
    Automático
    OK