Cifra Club

Quem disse que o amor pode acabar ? (versão 2)

Catedral

Cifrado: Principal (guitarra y guitarra eléctrica)
tono: C
(intro) C  G  Dm  F

E|------------------------------------------------------|
B|------------------------------------------------------|
G|---9-9-9-10/12-7-7-7-7-7-9/10-10-9-9-7----------------|
D|---------------------------------------7-7-7-7-7------|
A|---7-7-7-8/10--5-5-5-5-5-7/8--8--7-7-5----------------|
E|---------------------------------------5-5-5-5-5------|

E|------------------------------------------------------|
B|------------------------------------------------------|
G|---9-9-9-10-12/14-12-12-12-7/10-10-9-9-7-5------------|
D|------------------------------------------------------|
A|---7-7-7-8--10/12-10-10-10-5/8--8--7-7-5-3------------|
E|------------------------------------------------------|

C  G         Dm
Eu   não entendi
F                C  G        Dm
Por que nunca consegui   te responder
F                Dm    F       G
Se tudo o que eu queria   era você
Dm      F       G
Não sei   o que dizer

C  G         Dm
Eu   não percebi
F                     C  G    Dm
Que a razão era maior    e adormeci
F                Dm    F       G
No momento mais difícil   te perdi
Dm      F       G
Mas nunca desisti

                   C  G  Dm      F
Quem disse que o amor    pode acabar?
C                         G   Dm     F
Quem foi que disse que o amor pode acabar    (2x)

(solo base 2x) C G  Dm F 
00:00 / 00:00
Otros videos de esta canción
Repetir
Otros videos de esta canción
Compositor no encontrado.
Colaboración y revisión:
  • Daniel Souza
  • Cairo queiroz
67 vistas
    • ½ Tono
    • A
    • Bb
    • B
    • C
    • Db
    • D
    • Eb
    • E
    • F
    • F#
    • G
    • Ab
  • Agregar a la lista

    0 comentarios

    Ver todos los comentarios

    ¿Lograste tocar?

    1 Tocaron 0 Aún no

    ¡Graba un video tocando Quem disse que o amor pode acabar ? (versão 2) y envíanoslo!

    00:00 / 00:00
    OK