Cifra Club

Homesick

Catfish And The Bottlemen

Cifrado: Completa (guitarra y guitarra eléctrica)
tono: G
[Intro/Verse]

E|---------------------------------------------------------------------------|
B|---------------------------------------------------------------------------|
G|---0--------------------0----------------0---------------------------------| 
D|-2-----4---2---0------2-----4---2------2-----4---2---0--------------2------|
A|-----5---3---2------------5---3------------5---3---2---2----2---0----------|
E|-------------------------------------------------------3--3---2---0--------|

E|-----------------------------------------------------------------------------------|
B|---3----0----1-------------3----0----1--------3----0----1--------------------------|
G|---4----0----2----2--------4----0----2--------4----0----2----2-0--------4---2---0--| 
D|-2-----------------------2------------------2---------------------------0---0---0--|
A|------5----3----3-------------5----3-------------5----3----3-----------------------|
E|---------------------------------------------------------------3------3---2---0----|

[Chorus]

E|-----------------------------------------------------------------------|
B|---------------------------------------------3-3-3-------5-3-----------|
G|-4-4-4-2-2-2-0-0-0-----------0-2-4-4-4-2-2-2-------2-2-2-----4-2-------|
D|-------------------2-2-2-0-2-------------------------------------------|
A|-----------------------------------------------------------------------|
E|-----------------------------------------------------------------------|
     Em    D     C                   Em    D     C         <---- Guitar 2 plays these chords (still over
                                                                 drive and capo on 6)
E|-----------------------------------------------------------|
B|-----------------------------------------------------------|
G|-4-4-4-2-2-2-0-0-0-----------0-2-4-4-4-2-2-2-0-0-0-0-0-0-0-| 
D|-------------------2-2-2-0-2-------------------------------|
A|-----------------------------------------------------------|
E|-----------------------------------------------------------|
     Em    D     C                   Em    D     C
 
[Verse]
   
E|-----------------------------------------------------|
B|------------------------------------1----------------|
G|---0--------------------0-----------0----------------| 
D|-2-----4---2---0------2-----4---2---2----------------|
A|-----5---3---2------------5---3-----3----------------|
E|------------------------------------0----------------|

[PRE-CHORUS]

E|----------------------------------|
B|-------------------------3---0----|
G|----------------------------------|
D|-0-2-2-0-2-2-0-2-2-0-2-0---0---0--|  
A|----------------------------------| 
E|----------------------------------| 

[CHORUS]

E|-----------------------------------------------------------------------|
B|---------------------------------------------3-3-3-------5-3-----------|
G|-4-4-4-2-2-2-0-0-0-----------0-2-4-4-4-2-2-2-------2-2-2-----4-2-------|
D|-------------------2-2-2-0-2-------------------------------------------|
A|-----------------------------------------------------------------------|
E|-----------------------------------------------------------------------|
     Em    D     C                   Em    D     C

E|-----------------------------------------------------------|
B|-----------------------------------------------------------|
G|-4-4-4-2-2-2-0-0-0-----------0-2-4-4-4-2-2-2-0-0-0-0-0-0-0-| 
D|-------------------2-2-2-0-2-------------------------------|
A|-----------------------------------------------------------|
E|-----------------------------------------------------------|
     Em    D     C                   Em    D     C

E|-------------------------------------------------------------------------|
B|-----------------------------------------------3-3-3-------5-3-----------|
G|-2-4-4-4-2-2-2-0-0-0-----------0-2-4-4-4-2-2-2-------2-2-2-----4-2-------|
D|---------------------2-2-2-0-2-------------------------------------------|
A|-------------------------------------------------------------------------|
E|-------------------------------------------------------------------------|
        G     D     C                   Em    D     C
E|-----------------------------------------------------------|
B|-----------------------------------------------------------|
G|-4-4-4-2-2-2-0-0-0-----------0-2-4-4-4-2-2-2-0-0-0-0-0-0-0-| 
D|-------------------2-2-2-0-2-------------------------------|
A|-----------------------------------------------------------|
E|-----------------------------------------------------------|
     G     D     C                   Em    D     C

[SOLO]

E|----------------------------------------------------------------------------------------------|
B|----------------------------------------------------------------------------------------------|
G|-----------------------------------0-2br-2--------------------------------------0-2-0---------|
D|---------0-2-4-2----------0-2-4--2---------2----------0-2-4-2----------0-2-4--2-------4-------|
A|-----0-2--------------0-2-------------------------0-2--------------0-2------------------------|
E|-0-3--------------0-3-------------------------0-3--------------0-3----------------------------|
Composición de Van McCann
Colaboración y revisión:
  • Laura Ferre
6 vistas
    • ½ Tono
    • A
    • Bb
    • B
    • C
    • Db
    • D
    • Eb
    • E
    • F
    • F#
    • G
    • Ab
  • Agregar a la lista

    0 comentarios

    Ver todos los comentarios

    ¿Lograste tocar?

    1 Tocaron 0 Aún no

    ¡Graba un video tocando Homesick y envíanoslo!

    00:00 / 00:00
    Outros vídeos desta música
    Repetir Calidad Automático
    Outros vídeos desta música
    00:00 / 00:00
    Automático
    OK