Cifra Club

Deus É 10

Católicas

Tablatura: Principal (guitarra)
reproducciones 393
Tono: D
Riff 1                  FIM
E|-------------|     |-------|   
B|-------------|     |-------|   
G|-2-1-4-2-4-2-|(3x) |-2-1-4-|   
D|-2-2-2-2-2-2-|(3x) |-2-2-2-|   
A|-------------|     |-------|   
E|-------------|     |-------|   

VIRADA
E|-----------------
B|-----------------
G|-----------------
D|-----------------
A|---------2-4-5---
E|-0-2-3-5---------


  Riff 2  (2X)  (E DURANTE TODO O REFRÃO)
E|-------------------------------------------------|   
B|-------------------------------------------------|    
G|--------4-----------------------4----------------|
D|---4-5-7------------2-----4-5-7-------------2----|
A|-5------------2-3-5---5-5-------------2-3-5------|    
E|----------3-3---------------------3-3------------|    

E|-----------------------------------------------------|   
B|-/7-7-10---------------------------------------------|    
G|-/7-7----9-7--7-7------------------------------------|   
D|---------------9-9-7--/11-11-9-7---------------------|    
A|----------------------------------7h9/10-9-7--9-7-5--|   
E|-----------------------------------------------------|    

[Intro] E Aadd9  E Aadd9 C#m7 Aadd9 Bsus

D                 G        D             G               Bm
Venha viver uma grande emoção e sentir no peito uma explosão
            G                     A
Um amor verdadeiro Ele quer lhe dar

D               G      D                   G              Bm
Vale a pena abrir o coração e deixar Deus viver junto com você,
                     G                        A
Ele é grande, Ele é tudo, Ele é mais, Deus é dez

       D        G           D       G
Deus é dez pra mim, Deus é dez pra você
         Bm           G           A
Deus é dez pra todos nós, Deus é dez

D                 G        D             G               Bm
Venha viver uma grande emoção e sentir no peito uma explosão
            G                     A
Um amor verdadeiro Ele quer lhe dar

D               G       D                  G               Bm
Vale a pena abrir o coração e deixar Deus viver junto com você
                     G                        A
Ele é grande, Ele é tudo, Ele é mais, Deus é dez

        D       G          D        G
Quero paz pra mim, Quero paz pra você
       Bm           G          A   A7
Quero paz pra todos nós, Quero paz
Acordes para:

    0 comentarios

    mostrar más comentarios

    ¿Conseguiste tocar?

    6 tocaron 1 aún no

    ¡Graba un vídeo tocando Deus É 10 y envianoslo!

    00:00 / 00:00
    outros vídeos desta música
    repetir qualidade Automático
    Outros vídeos desta música
    00:00 / 00:00
    Automático
    OK