Cifra Club

Green

Cavetown

Tablatura: Principal (guitarra)
Tom: G
[Verso]

E|---------------------------------------------------------------------------|
B|---------------------------------------------------------------------------|
G|-----7----7-----7-----7-----7-----7-----7-----7-----2-----2-----2-----2----|
D|---0-----0----0-----0-----0-----0-----0-----0-----0-----0-----0-----0------|
A|-9-----9----9-----9-----7-----7-----7-----7-----2-----2-----2-----2--------|
E|---------------------------------------------------------------------------|

E|---------------------------------------------------------------------------|
B|---------------------------------------------------------------------------|
G|-----0-----0-----0-----0---------------------------------------------------|
D|---0-----0-----0-----0-----------------------------------------------------|
A|-2-----2-----2-----2-------------------------------------------------------|
E|---------------------------------------------------------------------------|

[Refrão]

E|---------------------------------------------------------------------------|
B|---------------------------------------------------------------------------|
G|-----2-----2-----2-----2-----0-----0-----0-----0-----7----7-----7-----7----|
D|---0-----0-----0-----0-----0-----0-----0-----0-----0-----0----0-----0------|
A|-2-----2-----2-----2-----2-----2-----2-----2-----9-----9----9-----9--------|
E|---------------------------------------------------------------------------|

E|---------------------------------------------------------------------------|
B|---------------------------------------------------------------------------|
G|-----7-----7-----7-----7---------------------------------------------------|
D|---0-----0-----0-----0-----------------------------------------------------|
A|-7-----7-----7-----7-------------------------------------------------------|
E|---------------------------------------------------------------------------|
reproducciones 48
Acordes para:
    Composição: Robbie Skinner Colaboración y revision:
    • Maria Grützmann

    0 comentarios

    mostrar más comentarios

    ¿Conseguiste tocar?

    3 tocaron 0 aún no

    ¡Graba un vídeo tocando Green y envianoslo!

    00:00 / 00:00
    outros vídeos desta música
    repetir qualidade Automático
    Outros vídeos desta música
    00:00 / 00:00
    Automático
    OK