Cifra Club

Bete Balanço

Cazuza

Cifrado: Academy-violao (guitarra y guitarra eléctrica)
Selo Cifra Club: esta cifra foi revisada para atender aos critérios oficiais da nossa Equipe de Qualidade.
tono: Em
[Intro] Em7  Am7  Em

[Tab - Riff Principal]

   Em7       
E|---7-x-------x-----7-x--------------------|
B|---8-x-------x-----8-x--------------------|
G|---7-x-6/7---x-----7-x-6/7\6/-7-----------|
D|---9-x-6/7---x-----9-x-6/7\6/-7-----------|
A|---7-x-4/5---x-----7-x-4/5\4/-5-----------|
E|-0-------------0--------------------------|
     ↑ ↓ ↓     ↓     ↑ ↓ ↓      ↓

   Am7       
E|---5-x-------x-----5-x--------------------|
B|---5-x-------x-----5-x--------------------|
G|---5-x-4/5---x-----5-x-4/5\4/-5-----------|
D|---5-x-4/5---x-----5-x-4/5\4/-5-----------|
A|---7-x-2/3---x-----7-x-2/3\2/-3-----------|
E|-5-------------5--------------------------|
     ↑ ↓ ↓     ↓     ↑ ↓ ↓      ↓

[Primeira Parte]

         Em7
Pode seguir a tua estrela

O teu brinquedo de 'star'
       Am7
Fantasiando em segredo
                       Em7
O ponto aonde quer chegar

O teu futuro é duvidoso

Eu vejo grana eu vejo dor
       Am7
No paraíso perigoso
                            Em7
Que a palma da tua mão mostrou

[Refrão]

[Tab - Refrão]

   Bm7             C     Am7
E|-2-----2---------0-----0------------------|
B|-3---x-3---3-3-3-1---x-1---1-1-1----------|
G|-2---x-2---2-2-2-0---x-0---0-0-0----------|
D|-4---x-4---4-4-4-2---x-2---2-2-2----------|
A|-2---x-2---2-2-2-3---x-0---0-0-0----------|
E|------------------------------------------|
   ↓   ↓ ↑   ↑ ↓ ↑ ↓   ↓ ↑   ↑ ↓ ↑

   Bm7             C5    B5  G5  A5
E|-2-----2----------------------------------|
B|-3---x-3---3-3-3--------------------------|
G|-2---x-2---2-2-2-5-5-5-4------------------|
D|-4---x-4---4-4-4-5-5-5-4---5-5-7----------|
A|-2---x-2---2-2-2-3-3-3-2---5-5-7----------|
E|---------------------------3-3-5----------|
   ↓   ↓ ↑   ↑ ↓ ↑ ↓ ↓ ↓ ↓   ↓ ↓ ↓

              Bm7
Quem vem com tudo não cansa
 C      Am7          Bm7
Bete balança o meu amor
     C5          B5 G5 Em7
Me avise quando for a hora

( Em7  Am7  Em7 )

[Segunda Parte]

[Tab - Segunda Parte]

   Bm7             F#m7     
E|-2-----2---------2-----2------------------|
B|-3---x-3---3-3-3-2---x-2---2-2-2----------|
G|-2---x-2---2-2-2-2---x-2---2-2-2----------|
D|-4---x-4---4-4-4-2---x-2---2-2-2----------|
A|-2---x-2---2-2-2-4---x-4---4-4-4----------|
E|-----------------2-----2------------------|
   ↓   ↓ ↑   ↑ ↓ ↑ ↓   ↓ ↑   ↑ ↓ ↑

   Bm7             Em  D C          
E|-2-----2----------------------------------|
B|-3---x-3---3-3-3-0-0-3-1---1-1-1----------|
G|-2---x-2---2-2-2-0-0-2-0---0-0-0----------|
D|-4---x-4---4-4-4-2-2-0-2---2-2-2----------|
A|-2---x-2---2-2-2-2-2---3---3-3-3----------|
E|-----------------0-0----------------------|
   ↓   ↓ ↑   ↑ ↓ ↑ ↓ ↓ ↓ ↓   ↑ ↓ ↑

   Bm7             F#m7     
E|-2-----2---------2-----2------------------|
B|-3---x-3---3-3-3-2---x-2---2-2-2----------|
G|-2---x-2---2-2-2-2---x-2---2-2-2----------|
D|-4---x-4---4-4-4-2---x-2---2-2-2----------|
A|-2---x-2---2-2-2-4---x-4---4-4-4----------|
E|-----------------2-----2------------------|
   ↓   ↓ ↑   ↑ ↓ ↑ ↓   ↓ ↑   ↑ ↓ ↑

   Bm7             C7M      
E|-2-----2---------0-----0------------------|
B|-3---x-3---3-3-3-0---x-0---0-0-0-0-0-0-0--|
G|-2---x-2---2-2-2-0---x-0---0-0-0-0-0-0-0--|
D|-4---x-4---4-4-4-2---x-2---2-2-2-2-2-2-2--|
A|-2---x-2---2-2-2-3---x-3---3-3-3-3-3-3-3--|
E|------------------------------------------|
   ↓   ↓ ↑   ↑ ↓ ↑ ↓   ↓ ↑   ↓ ↓ ↓ ↓ ↓ ↓ ↓

Bm7             F#m7
    Não ligue pra essas caras tristes
    Bm7                    Em   D5  C
Fingindo que a gente não existe
Bm7              F#m7
   Sentadas são tão engraçadas
 Bm7            C7M     
Donas das suas salas

( Em7 )  

[Primeira Parte]

         Em7
Pode seguir a tua estrela

O teu brinquedo de 'star'
       Am7
Fantasiando em segredo
                       Em7
O ponto aonde quer chegar

O teu futuro é duvidoso

Eu vejo grana eu vejo dor
       Am7
No paraíso perigoso
                            Em7
Que a palma da tua mão mostrou

[Refrão]

              Bm7
Quem vem com tudo não cansa
 C      Am7          Bm7
Bete balança o meu amor
     C5          B5 G5 Em7
Me avise quando for a hora
             Bm7
Quem tem um sonho não dança
 C       Am7         Bm7
Bete balanço, por favor
     C5       B5 G5    Em7
Me avise quando for embora
Otros videos de esta canción
    367 exhibiciones
      • ½ Tono
      • Am
      • Bbm
      • Bm
      • Cm
      • C#m
      • Dm
      • Ebm
      • Em
      • Fm
      • F#m
      • Gm
      • G#m
    • Agregar a la lista

    Afinação da cifra

    Afinador online

      Ops (: Contenido disponible solo en portugués.
      OK