Cifra Club

Boa Vida

Cazuza

Tab de bajo: Principal
Selo Cifra Club: esta cifra foi revisada para atender aos critérios oficiais da nossa Equipe de Qualidade.
[Intro]

G|-----------------------------------------------|
D|-----------------------------------------------|
A|----7--3----------7--3----5-5-5-5--------------|
E|--3------------3-------------------------------|

[Riff]

G|------------------------------2----------------|
D|-----------2-------------2-5-------------------|
A|------2-5-----------3-3----------5-5-5-5-5-7-5-|
E|-3-3----------0-0------------------------------|(4x)

"É que os tempos mudaram..."
G|-----------------------------------------------|
D|-----------------------------------------------|
A|--3--2--1--0--3--0--3/5--5-5-5-----------------|
E|-----------------------------------------------|

[Riff]

"Que só sabe ficar..."
G|-----------------------------------------------|
D|-----------------------------------------------|
A|--3--2--1--0-----1-----------------------------|
E|--------------1-----3/5------------------------|

"Agora a gente só vive grudado..."
G|-----------------------------------------------|
D|-----------------------------------------------|
A|-------------3~--------------------------------|
E|--3-3---5-5------------------------------------|(2x)

"Me dão razão quando eu falo"
G|-----------------------------------------------|
D|-----------------------------------------------|
A|-----3/5---------------------------------------|
E|--1--------------------------------------------|

[Riff]

"É, os tempos mudaram..."
G|-----------------------------------------------|
D|-----------------------------------------------|
A|--3--2--1--0--3--0--3/5--5-5-5-----------------|
E|-----------------------------------------------|

G|-----------------------------------------------|
D|-----------2-----------------------------------|
A|------2-5--------------------------------------|
E|-3-3----------0-0------------------------------|(2x)

[Riff]

"É que os tempos mudaram..."
G|-----------------------------------------------|
D|-----------------------------------------------|
A|--3--2--1--0--3--0--3/5--5-5-5-----------------|
E|-----------------------------------------------|

[Riff]
Otros videos de esta canción
    0 exhibiciones

    Afinação da cifra

    Afinador online

    Ops (: Contenido disponible solo en portugués.
    OK