Cifra Club

Eu Preciso Dizer Que Eu Te Amo

Cazuza

Cifrado: Principal (guitarra y guitarra eléctrica)
Selo Cifra Club: esta cifra foi revisada para atender aos critérios oficiais da nossa Equipe de Qualidade.
tono: Am
[Intro] Am7  G#4+(7M)  Am7  G#4+(7M)
        Am7  G#4+(7M)  Am7  G#4+(7M)
        Am7  G#4+(7M)  Am7  G#4+(7M)
        Am7  G#4+(7M)  Am7  G#4+(7M)

[Dedilhado - Intro]

   Am7      G#4+(7M)
E|------------------------------------------|
B|------------3-----------------------------|
G|-----5------5-----------------------------|
D|---5---5----5-----------------------------|
A|------------------------------------------|
E|-5--------4-------------------------------|

[Primeira Parte]

[Dedilhado - Primeira Parte]

Parte 1 de 2
   Am7      G#4+(7M)
E|------------------------------------------|
B|------------3-----------------------------|
G|-----5------5-----------------------------| (2x)
D|---5---5----5-----------------------------|
A|------------------------------------------|
E|-5--------4-------------------------------|

Parte 2 de 2
   E/G#
E|------------------------------------------|
B|-----5------5-----------------------------|
G|-----4------4-----------------------------|
D|---2---2----2-----------------------------|
A|------------------------------------------|
E|-4--------4-------------------------------|

Am7         G#4+(7M) Am7   G#4+(7M) 
  Quando a gente  conversa            
E/G#
     Contando casos, besteiras
Am7        G#4+(7M)   Am7  G#4+(7M) 
    Tanta coisa em comum          
E/G#
     Deixando escapar segredos

[Segunda Parte]

Parte 1 de 5
   Fm6        Bb7(9)
E|------------------------------------------|
B|-1---1---1--1---1---1---------------------|
G|-1---1---1--1---1---1---------------------|
D|-0---0---0--0---0---0---------------------|
A|------------1-1---1-----------------------|
E|-1-1---1----------------------------------|

Parte 2 de 5
   C7M        C6(9)
E|------------------------------------------|
B|-8---8---8--8---8---8---------------------|
G|-9---9---9--7---7---7---------------------|
D|-9---9---9--7---7---7---------------------|
A|------------------------------------------|
E|-8-8---8----8-8---8-----------------------|

Parte 3 de 5
   Fm6         Gm
E|------------------------------------------|
B|-1---1---1---3---3---3--------------------|
G|-1---1---1---3---3---3--------------------|
D|-0---0---0---0---0---0--------------------|
A|------------------------------------------|
E|-1-1---1-----3-3---3----------------------|

Parte 4 de 5
   C7M        C6(9)
E|------------------------------------------|
B|-8---8---8--8---8---8---------------------|
G|-9---9---9--7---7---7---------------------|
D|-9---9---9--7---7---7---------------------|
A|------------------------------------------|
E|-8-8---8----8-8---8-----------------------|

Parte 5 de 5
   Fm6         Gm
E|------------------------------------------|
B|-1---1---1---3---3---3--------------------|
G|-1---1---1---3---3---3--------------------|
D|-0---0---0---0---0---0--------------------|
A|------------------------------------------|
E|-1-1---1-----3-3---3----------------------|

Fm6                   Bb7(9)     
    E eu não sei que hora dizer
          C7M       C6(9)
Me dá um medo, que medo
Fm6                     Bb7(9)           
    É que eu preciso dizer que eu te amo
       C7M                 C6(9)
Te ganhar ou perder sem engano
Fm6                 Gm               
    É eu preciso dizer que eu te amo
Am7  G#4+(7M)  Am7  G#4+(7M)
    Tanto

[Primeira Parte - Variação Letra]

Am7          G#4+(7M) Am7        G#4+(7M) 
    E até o tempo    passa arrastado
E/G#
     Só para eu ficar do teu lado
Am7           G#4+(7M) Am7           G#4+(7M)  
    Você me chora   dores de outro amor
E/G#
     Se abre e acaba comigo

[Segunda Parte - Variação Letra]

   Fm6     Bb7(9)            
E nessa novela eu não quero
          C7M  C6(9)
Ser teu amigo
Fm6                     Bb7(9)            
    É que eu preciso dizer que eu te amo
       C7M                 C6(9)
Te ganhar ou perder sem engano
Fm6                 Gm                
    É eu preciso dizer que eu te amo
 G#6  A#6
Tanto

[Tab - Passagem]

   G#6         A#6
E|------------------------------------------|
B|-4---4---4---6---6---6--------------------|
G|-5---5---5---7---7---7--------------------|
D|-3---3---3---4---4---4--------------------|
A|------------------------------------------|
E|-4-4---4-----6-6---6----------------------|

[Terceira Parte]

[Dedilhado - Terceira Parte]

Parte 1 de 4
   C7M(9)         F7M
E|------------------------------------------|
B|-----3-----3--------1-----1---------------|
G|-----4-----4--------2-----2---------------|
D|---2---2---2------2---2---2---------------|
A|-3-------3---3----------------------------|
E|----------------1-------1---1-------------|

Parte 2 de 4
   C7M(9)         Dm7(9) G7(13)
E|------------------------------------------|
B|-----3-----3------5------5----------------|
G|-----4-----4------5------4----------------|
D|---2---2---2------3------3----------------|
A|-3-------3---3--5---5---------------------|
E|-----------------------3---3--------------|

Parte 3 de 4
   C7M(9)         F7M
E|------------------------------------------|
B|-----3-----3--------1-----1---------------|
G|-----4-----4--------2-----2---------------| (3x)
D|---2---2---2------2---2---2---------------|
A|-3-------3---3----------------------------|
E|----------------1-------1---1-------------|

Parte 4 de 4
   C7M(9)         
E|------------------------------------------|
B|---3-3----3-3----3-3----3-----------------|
G|---4-4----4-4----4-4----4-----------------|
D|---2-2----2-2----2-2----2-----------------|
A|-3-------------3--------------------------|
E|--------3-------------3-------------------|

C7M(9)                      F7M          
       Eu já não sei se eu to misturando
C7M(9)             Dm7(9)  G7(13)
       Eu perco o sono
C7M(9)                   
       Lembrando em cada riso
 F7M                 C7M(9)  F7M
Teu qualquer bandeira
C7M(9)                           F7M       
       Fechando e abrindo a geladeira 
              C7M(9)  
A noite inteira

[Segunda Parte - Variação Letra]

Fm6               Bb7(9)           
    Eu preciso dizer que eu te amo
       C7M(9)              C6(9)
Te ganhar ou perder sem engano
Fm6               Gm               
    Eu preciso dizer que eu te amo
Am7  G#4+(7M)  Am7  G#4+(7M)
    Tanto
Otros videos de esta canción
    1.628.043 exhibiciones
      • ½ Tono
      • Am
      • Bbm
      • Bm
      • Cm
      • C#m
      • Dm
      • Ebm
      • Em
      • Fm
      • F#m
      • Gm
      • G#m
    • Agregar a la lista

    Afinación de cifrado

    Afinador online

      Capítulos
      • Início
      • Tocando a música
      • Acordes da introdução e primeira parte
      • Tocando introdução e primeira parte
      • Ensinando dedilhado introdução
      • Ensinando dedilhado primeira parte
      • Acordes da segunda parte
      • Tocando segunda parte
      • Ensinado dedilhado segunda parte
      • Acordes da terceira parte
      • Tocando terceira parte
      • Ensinando dedilhado terceira parte
      • Encerramento
      OK