Cifra Club

Ideologia

Cazuza

Tab de bajo: Principal
Selo Cifra Club: esta cifra foi revisada para atender aos critérios oficiais da nossa Equipe de Qualidade.
tono: Afinación:
Tom: G#

Intro

G|---------
D|---------
A|--------- (4x)
E|--5--5---


G|---------------
D|--5/7----------
A|---------5-7-5- (8x)
E|--3/5-3--------


Os meus sonhos...

G|--------------
D|--------------
A|---3-5--5-3-5- (4x)
E|-5------------


G|---------------
D|--5/7----------
A|---------5-7-5- (2x)
E|--3/5-3--------


Que aquele garoto...

G|------------------------------------------------------
D|------------------------------------------------------
A|--2b3r2-------------2-3-3-2-3-3-------------5-5--5-5-5
E|--------3-1-0--2-3-3-----------3-1-0--2-3-3----5------


Meus heróis morreram de overdose...

G|-------------------------------------------
D|-------------------------------------------
A|-------------------3-5-5-5-3-5-3-5-5-5-3-5- (2x)
E|--5-5-3-5--3-3-3-3-------------------------


Ideologia...

G|--------------------
D|--------------------
A|------2-3-5--5------ (2x)
E|-1-1-----------3h5-5
Otros videos de esta canción
    3.602 exhibiciones

    Afinación de cifrado

    Afinador online

    OK